  0
SECTION
  2
HEADER
  9
$ACADVER
  1
AC1014
  9
$ACADMAINTVER
 70
     9
  9
$DWGCODEPAGE
  3
ANSI_932
  9
$INSBASE
 10
0.0
 20
0.0
 30
0.0
  9
$EXTMIN
 10
2224.895056890926
 20
845.0821971032597
 30
0.0
  9
$EXTMAX
 10
2335.938410053322
 20
1318.026902888417
 30
0.0
  9
$LIMMIN
 10
0.0
 20
0.0
  9
$LIMMAX
 10
420.0
 20
297.0
  9
$ORTHOMODE
 70
     1
  9
$REGENMODE
 70
     1
  9
$FILLMODE
 70
     1
  9
$QTEXTMODE
 70
     0
  9
$MIRRTEXT
 70
     1
  9
$DRAGMODE
 70
     2
  9
$LTSCALE
 40
1.0
  9
$OSMODE
 70
    55
  9
$ATTMODE
 70
     1
  9
$TEXTSIZE
 40
0.2
  9
$TRACEWID
 40
1.0
  9
$TEXTSTYLE
  7
STYLE1
  9
$CLAYER
  8
0
  9
$CELTYPE
  6
BYLAYER
  9
$CECOLOR
 62
   256
  9
$CELTSCALE
 40
1.0
  9
$DELOBJ
 70
     1
  9
$DISPSILH
 70
     0
  9
$DIMSCALE
 40
1.0
  9
$DIMASZ
 40
2.5
  9
$DIMEXO
 40
0.625
  9
$DIMDLI
 40
3.75
  9
$DIMRND
 40
0.0
  9
$DIMDLE
 40
0.0
  9
$DIMEXE
 40
1.25
  9
$DIMTP
 40
0.0
  9
$DIMTM
 40
0.0
  9
$DIMTXT
 40
2.5
  9
$DIMCEN
 40
2.5
  9
$DIMTSZ
 40
0.0
  9
$DIMTOL
 70
     0
  9
$DIMLIM
 70
     0
  9
$DIMTIH
 70
     0
  9
$DIMTOH
 70
     0
  9
$DIMSE1
 70
     0
  9
$DIMSE2
 70
     0
  9
$DIMTAD
 70
     1
  9
$DIMZIN
 70
     8
  9
$DIMBLK
  1

  9
$DIMASO
 70
     1
  9
$DIMSHO
 70
     1
  9
$DIMPOST
  1

  9
$DIMAPOST
  1

  9
$DIMALT
 70
     0
  9
$DIMALTD
 70
     3
  9
$DIMALTF
 40
0.03937007874016
  9
$DIMLFAC
 40
4.0
  9
$DIMTOFL
 70
     1
  9
$DIMTVP
 40
0.0
  9
$DIMTIX
 70
     0
  9
$DIMSOXD
 70
     0
  9
$DIMSAH
 70
     0
  9
$DIMBLK1
  1

  9
$DIMBLK2
  1

  9
$DIMSTYLE
  2
ISO-25
  9
$DIMCLRD
 70
     0
  9
$DIMCLRE
 70
     0
  9
$DIMCLRT
 70
     0
  9
$DIMTFAC
 40
1.0
  9
$DIMGAP
 40
0.625
  9
$DIMJUST
 70
     0
  9
$DIMSD1
 70
     0
  9
$DIMSD2
 70
     0
  9
$DIMTOLJ
 70
     1
  9
$DIMTZIN
 70
     8
  9
$DIMALTZ
 70
     8
  9
$DIMALTTZ
 70
     8
  9
$DIMFIT
 70
     5
  9
$DIMUPT
 70
     0
  9
$DIMUNIT
 70
     2
  9
$DIMDEC
 70
     1
  9
$DIMTDEC
 70
     4
  9
$DIMALTU
 70
     2
  9
$DIMALTTD
 70
     3
  9
$DIMTXSTY
  7
STANDARD
  9
$DIMAUNIT
 70
     0
  9
$LUNITS
 70
     2
  9
$LUPREC
 70
     4
  9
$SKETCHINC
 40
1.0
  9
$FILLETRAD
 40
1.0
  9
$AUNITS
 70
     0
  9
$AUPREC
 70
     0
  9
$MENU
  1
.
  9
$ELEVATION
 40
0.0
  9
$PELEVATION
 40
0.0
  9
$THICKNESS
 40
0.0
  9
$LIMCHECK
 70
     0
  9
$CHAMFERA
 40
10.0
  9
$CHAMFERB
 40
10.0
  9
$CHAMFERC
 40
0.0
  9
$CHAMFERD
 40
0.0
  9
$SKPOLY
 70
     0
  9
$TDCREATE
 40
2452261.952194444
  9
$TDUPDATE
 40
2460322.667788634
  9
$TDINDWG
 40
1.4407384028
  9
$TDUSRTIMER
 40
0.0003201157
  9
$USRTIMER
 70
     1
  9
$ANGBASE
 50
0.0
  9
$ANGDIR
 70
     0
  9
$PDMODE
 70
     0
  9
$PDSIZE
 40
0.0
  9
$PLINEWID
 40
0.0
  9
$COORDS
 70
     1
  9
$SPLFRAME
 70
     0
  9
$SPLINETYPE
 70
     6
  9
$SPLINESEGS
 70
     8
  9
$ATTDIA
 70
     0
  9
$ATTREQ
 70
     1
  9
$HANDLING
 70
     1
  9
$HANDSEED
  5
C69D
  9
$SURFTAB1
 70
     6
  9
$SURFTAB2
 70
     6
  9
$SURFTYPE
 70
     6
  9
$SURFU
 70
     6
  9
$SURFV
 70
     6
  9
$UCSNAME
  2

  9
$UCSORG
 10
0.0
 20
0.0
 30
0.0
  9
$UCSXDIR
 10
1.0
 20
0.0
 30
0.0
  9
$UCSYDIR
 10
0.0
 20
1.0
 30
0.0
  9
$PUCSNAME
  2

  9
$PUCSORG
 10
0.0
 20
0.0
 30
0.0
  9
$PUCSXDIR
 10
1.0
 20
0.0
 30
0.0
  9
$PUCSYDIR
 10
0.0
 20
1.0
 30
0.0
  9
$USERI1
 70
     0
  9
$USERI2
 70
     0
  9
$USERI3
 70
     0
  9
$USERI4
 70
     0
  9
$USERI5
 70
     0
  9
$USERR1
 40
0.0
  9
$USERR2
 40
0.0
  9
$USERR3
 40
0.0
  9
$USERR4
 40
0.0
  9
$USERR5
 40
0.0
  9
$WORLDVIEW
 70
     0
  9
$SHADEDGE
 70
     3
  9
$SHADEDIF
 70
    70
  9
$TILEMODE
 70
     1
  9
$MAXACTVP
 70
    64
  9
$PINSBASE
 10
0.0
 20
0.0
 30
0.0
  9
$PLIMCHECK
 70
     0
  9
$PEXTMIN
 10
1.000000000000000E+20
 20
1.000000000000000E+20
 30
1.000000000000000E+20
  9
$PEXTMAX
 10
-1.000000000000000E+20
 20
-1.000000000000000E+20
 30
-1.000000000000000E+20
  9
$PLIMMIN
 10
0.0
 20
0.0
  9
$PLIMMAX
 10
0.0
 20
0.0
  9
$UNITMODE
 70
     0
  9
$VISRETAIN
 70
     1
  9
$PLINEGEN
 70
     0
  9
$PSLTSCALE
 70
     1
  9
$TREEDEPTH
 70
  3020
  9
$PICKSTYLE
 70
     0
  9
$CMLSTYLE
  2
STANDARD
  9
$CMLJUST
 70
     0
  9
$CMLSCALE
 40
1.0
  9
$PROXYGRAPHICS
 70
     1
  9
$MEASUREMENT
 70
     0
  0
ENDSEC
  0
SECTION
  2
CLASSES
  0
CLASS
  1
ACDBDICTIONARYWDFLT
  2
AcDbDictionaryWithDefault
  3
ObjectDBX Classes
 90
        0
280
     0
281
     0
  0
CLASS
  1
ACDBPLACEHOLDER
  2
AcDbPlaceHolder
  3
ObjectDBX Classes
 90
        0
280
     0
281
     0
  0
CLASS
  1
LAYOUT
  2
AcDbLayout
  3
ObjectDBX Classes
 90
        0
280
     0
281
     0
  0
CLASS
  1
VISUALSTYLE
  2
AcDbVisualStyle
  3
ObjectDBX Classes
 90
     4095
280
     0
281
     0
  0
CLASS
  1
SCALE
  2
AcDbScale
  3
ObjectDBX Classes
 90
     1153
280
     0
281
     0
  0
CLASS
  1
MATERIAL
  2
AcDbMaterial
  3
ObjectDBX Classes
 90
     1153
280
     0
281
     0
  0
CLASS
  1
TABLESTYLE
  2
AcDbTableStyle
  3
ObjectDBX Classes
 90
     4095
280
     0
281
     0
  0
CLASS
  1
MLEADERSTYLE
  2
AcDbMLeaderStyle
  3
ACDB_MLEADERSTYLE_CLASS
 90
     4095
280
     0
281
     0
  0
CLASS
  1
SUN
  2
AcDbSun
  3
SCENEOE
 90
     1153
280
     0
281
     0
  0
CLASS
  1
RASTERVARIABLES
  2
AcDbRasterVariables
  3
ISM
 90
        0
280
     0
281
     0
  0
CLASS
  1
DICTIONARYVAR
  2
AcDbDictionaryVar
  3
ObjectDBX Classes
 90
        0
280
     0
281
     0
  0
CLASS
  1
SORTENTSTABLE
  2
AcDbSortentsTable
  3
ObjectDBX Classes
 90
        0
280
     0
281
     0
  0
CLASS
  1
DIMASSOC
  2
AcDbDimAssoc
  3
"AcDbDimAssoc|Product Desc:     AcDim ARX App For Dimension|Company:          Autodesk, Inc.|WEB Address:      www.autodesk.com"
 90
        0
280
     0
281
     0
  0
CLASS
  1
XRECORD
  2
AcDbXrecord
  3
ObjectDBX Classes
 90
        0
280
     0
281
     0
  0
CLASS
  1
LWPOLYLINE
  2
AcDbPolyline
  3
ObjectDBX Classes
 90
        0
280
     0
281
     1
  0
CLASS
  1
HATCH
  2
AcDbHatch
  3
ObjectDBX Classes
 90
        0
280
     0
281
     1
  0
ENDSEC
  0
SECTION
  2
TABLES
  0
TABLE
  2
VPORT
  5
A9F1
330
0
100
AcDbSymbolTable
 70
     1
  0
VPORT
  5
AAA1
330
A9F1
100
AcDbSymbolTableRecord
100
AcDbViewportTableRecord
  2
*ACTIVE
 70
     0
 10
0.0
 20
0.0
 11
1.0
 21
1.0
 12
2280.416733472124
 22
1081.554549995838
 13
0.0
 23
0.0
 14
10.0
 24
10.0
 15
10.0
 25
10.0
 16
0.0
 26
0.0
 36
1.0
 17
0.0
 27
0.0
 37
0.0
 40
482.4035999008605
 41
1.684045881126173
 42
50.0
 43
0.0
 44
0.0
 50
0.0
 51
0.0
 71
    16
 72
   100
 73
     1
 74
     3
 75
     0
 76
     0
 77
     0
 78
     0
  0
ENDTAB
  0
TABLE
  2
LTYPE
  5
A9EE
330
0
100
AcDbSymbolTable
 70
     1
  0
LTYPE
  5
A9FC
330
A9EE
100
AcDbSymbolTableRecord
100
AcDbLinetypeTableRecord
  2
BYBLOCK
 70
     0
  3

 72
    65
 73
     0
 40
0.0
  0
LTYPE
  5
A9FD
330
A9EE
100
AcDbSymbolTableRecord
100
AcDbLinetypeTableRecord
  2
BYLAYER
 70
     0
  3

 72
    65
 73
     0
 40
0.0
  0
LTYPE
  5
A9FE
330
A9EE
100
AcDbSymbolTableRecord
100
AcDbLinetypeTableRecord
  2
CONTINUOUS
 70
     0
  3
Solid line
 72
    65
 73
     0
 40
0.0
  0
ENDTAB
  0
TABLE
  2
LAYER
  5
A9EB
102
{ACAD_XDICTIONARY
360
AAE8
102
}
330
0
100
AcDbSymbolTable
 70
     3
  0
LAYER
  5
A9F9
330
A9EB
100
AcDbSymbolTableRecord
100
AcDbLayerTableRecord
  2
0
 70
     0
 62
     7
  6
CONTINUOUS
  0
LAYER
  5
AA5B
330
A9EB
100
AcDbSymbolTableRecord
100
AcDbLayerTableRecord
  2
DIM
 70
     0
 62
     7
  6
CONTINUOUS
  0
LAYER
  5
B455
330
A9EB
100
AcDbSymbolTableRecord
100
AcDbLayerTableRecord
  2
OBJECT
 70
     0
 62
     7
  6
CONTINUOUS
  0
ENDTAB
  0
TABLE
  2
STYLE
  5
A9EC
330
0
100
AcDbSymbolTable
 70
     3
  0
STYLE
  5
A9FA
330
A9EC
100
AcDbSymbolTableRecord
100
AcDbTextStyleTableRecord
  2
STANDARD
 70
     0
 40
0.0
 41
1.0
 50
0.0
 71
     0
 42
0.2
  3
txt
  4

  0
STYLE
  5
AA4C
330
A9EC
100
AcDbSymbolTableRecord
100
AcDbTextStyleTableRecord
  2
STYLE1
 70
     0
 40
0.0
 41
1.0
 50
0.0
 71
     0
 42
0.2
  3
ARSimp.shx
  4
ARExtFont.shx
  0
STYLE
  5
AB0C
330
A9EC
100
AcDbSymbolTableRecord
100
AcDbTextStyleTableRecord
  2
BLOCKFONT
 70
     0
 40
0.0
 41
1.0
 50
0.0
 71
     0
 42
0.2
  3
ARSimp.shx
  4
extfont2.shx
  0
ENDTAB
  0
TABLE
  2
VIEW
  5
A9EF
330
0
100
AcDbSymbolTable
 70
     0
  0
ENDTAB
  0
TABLE
  2
UCS
  5
A9F0
330
0
100
AcDbSymbolTable
 70
     0
  0
ENDTAB
  0
TABLE
  2
APPID
  5
A9F2
330
0
100
AcDbSymbolTable
 70
     6
  0
APPID
  5
A9FB
330
A9F2
100
AcDbSymbolTableRecord
100
AcDbRegAppTableRecord
  2
ACAD
 70
     0
  0
APPID
  5
AA51
330
A9F2
100
AcDbSymbolTableRecord
100
AcDbRegAppTableRecord
  2
ACAECLAYERSTANDARD
 70
     0
  0
APPID
  5
AA52
330
A9F2
100
AcDbSymbolTableRecord
100
AcDbRegAppTableRecord
  2
ACAD_SPLINE_DATA
 70
     0
  0
APPID
  5
AA53
330
A9F2
100
AcDbSymbolTableRecord
100
AcDbRegAppTableRecord
  2
ACAD_SPLINE_DATA2
 70
     0
  0
APPID
  5
AE76
330
A9F2
100
AcDbSymbolTableRecord
100
AcDbRegAppTableRecord
  2
PLOTTRANSPARENCY
 70
     0
  0
APPID
  5
B79B
330
A9F2
100
AcDbSymbolTableRecord
100
AcDbRegAppTableRecord
  2
ACAD_DSTYLE_DIMRADIAL_EXTE
 70
     0
  0
ENDTAB
  0
TABLE
  2
DIMSTYLE
  5
A9F3
330
0
100
AcDbSymbolTable
 70
     1
  0
DIMSTYLE
105
AA54
330
A9F3
100
AcDbSymbolTableRecord
100
AcDbDimStyleTableRecord
  2
ISO-25
 70
     0
  3

  4

  5

  6

  7

 40
1.0
 41
2.5
 42
0.625
 43
3.75
 44
1.25
 45
0.0
 46
0.0
 47
0.0
 48
0.0
140
2.5
141
2.5
142
0.0
143
0.03937007874016
144
4.0
145
0.0
146
1.0
147
0.625
 71
     0
 72
     0
 73
     0
 74
     0
 75
     0
 76
     0
 77
     1
 78
     8
170
     0
171
     3
172
     1
173
     0
174
     0
175
     0
176
     0
177
     0
178
     0
270
     2
271
     1
272
     4
273
     2
274
     3
340
A9FA
275
     0
280
     0
281
     0
282
     0
283
     1
284
     8
285
     8
286
     8
287
     5
288
     0
  0
ENDTAB
  0
TABLE
  2
BLOCK_RECORD
  5
A9EA
330
0
100
AcDbSymbolTable
 70
     0
  0
BLOCK_RECORD
  5
AA07
330
A9EA
100
AcDbSymbolTableRecord
100
AcDbBlockTableRecord
  2
*MODEL_SPACE
  0
BLOCK_RECORD
  5
AA03
330
A9EA
100
AcDbSymbolTableRecord
100
AcDbBlockTableRecord
  2
*PAPER_SPACE
  0
ENDTAB
  0
ENDSEC
  0
SECTION
  2
BLOCKS
  0
BLOCK
  5
AA62
330
AA07
100
AcDbEntity
  8
0
100
AcDbBlockBegin
  2
*MODEL_SPACE
 70
     0
 10
0.0
 20
0.0
 30
0.0
  3
*MODEL_SPACE
  1

  0
ENDBLK
  5
AA63
330
AA07
100
AcDbEntity
  8
0
100
AcDbBlockEnd
  0
BLOCK
  5
AA60
330
AA03
100
AcDbEntity
 67
     1
  8
0
100
AcDbBlockBegin
  2
*PAPER_SPACE
 70
     0
 10
0.0
 20
0.0
 30
0.0
  3
*PAPER_SPACE
  1

  0
ENDBLK
  5
AA61
330
AA03
100
AcDbEntity
 67
     1
  8
0
100
AcDbBlockEnd
  0
ENDSEC
  0
SECTION
  2
ENTITIES
  0
MTEXT
  5
B70C
330
AA07
100
AcDbEntity
  8
DIM
100
AcDbMText
 10
1927.141006165881
 20
908.1790955762777
 30
0.0
 40
2.5
 41
0.0
 71
     7
 72
     1
  1

  0
TEXT
  5
C64F
330
AA07
100
AcDbEntity
  8
DIM
100
AcDbText
 10
2245.08203969517
 20
845.0821971032597
 30
0.0
 40
15.0
  1
YPL01
  7
BLOCKFONT
 72
     4
 11
2274.736057552313
 21
852.5821971032597
 31
0.0
100
AcDbText
  0
ARC
  5
C650
330
AA07
100
AcDbEntity
  8
OBJECT
100
AcDbCircle
 10
2280.416733472124
 20
1205.379039555617
 30
0.0
 40
55.521676581198
100
AcDbArc
 50
355.2377112972772
 51
184.7622887027227
  0
LINE
  5
C651
330
AA07
100
AcDbEntity
  8
OBJECT
100
AcDbLine
 10
2225.086733319469
 20
1200.769521848264
 30
0.0
 11
2335.746733624778
 21
1200.769521848264
 31
0.0
  0
LINE
  5
C652
330
AA07
100
AcDbEntity
  8
OBJECT
100
AcDbLine
 10
2276.417537499479
 20
980.274482638417
 30
0.0
 11
2276.417537499479
 21
1200.769521848264
 31
0.0
  0
LINE
  5
C653
330
AA07
100
AcDbEntity
  8
OBJECT
100
AcDbLine
 10
2284.417537499479
 20
980.274482638417
 30
0.0
 11
2284.417537499479
 21
1200.769521848264
 31
0.0
  0
LINE
  5
C654
330
AA07
100
AcDbEntity
  8
OBJECT
100
AcDbLine
 10
2225.408877695653
 20
958.026902888417
 30
0.0
 11
2335.424589248595
 21
958.026902888417
 31
0.0
  0
LINE
  5
C655
330
AA07
100
AcDbEntity
  8
OBJECT
100
AcDbLine
 10
2226.152578162492
 20
967.826902888417
 30
0.0
 11
2334.682496836466
 21
967.826902888417
 31
0.0
  0
LINE
  5
C656
330
AA07
100
AcDbEntity
  8
OBJECT
100
AcDbLine
 10
2225.408877695653
 20
958.026902888417
 30
0.0
 11
2225.652749500004
 21
967.3399913625709
 31
0.0
  0
ARC
  5
C657
330
AA07
100
AcDbEntity
  8
OBJECT
100
AcDbCircle
 10
2226.152578162492
 20
967.326902888417
 30
0.0
 40
0.4999999999999999
100
AcDbArc
 50
90.0
 51
178.4999999999972
  0
LINE
  5
C658
330
AA07
100
AcDbEntity
  8
OBJECT
100
AcDbLine
 10
2273.579804328168
 20
977.874482638417
 30
0.0
 11
2287.25366261608
 21
977.874482638417
 31
0.0
  0
LINE
  5
C659
330
AA07
100
AcDbEntity
  8
OBJECT
100
AcDbLine
 10
2272.35529254898
 20
968.3138144142631
 30
0.0
 11
2272.580147003193
 21
976.9006595867249
 31
0.0
  0
ARC
  5
C65A
330
AA07
100
AcDbEntity
  8
OBJECT
100
AcDbCircle
 10
2271.855463886492
 20
968.326902888417
 30
0.0
 40
0.5
100
AcDbArc
 50
270.0
 51
358.5000000000102
  0
ARC
  5
C65B
330
AA07
100
AcDbEntity
  8
OBJECT
100
AcDbCircle
 10
2273.579804328168
 20
976.874482638417
 30
0.0
 40
0.9999999999999994
100
AcDbArc
 50
90.0
 51
178.4999999999972
  0
LINE
  5
C65C
330
AA07
100
AcDbEntity
  8
OBJECT
100
AcDbLine
 10
2335.426197303305
 20
958.026902888417
 30
0.0
 11
2335.182325498954
 21
967.3399913625709
 31
0.0
  0
ARC
  5
C65D
330
AA07
100
AcDbEntity
  8
OBJECT
100
AcDbCircle
 10
2334.682496836466
 20
967.326902888417
 30
0.0
 40
0.4999999999999999
100
AcDbArc
 50
1.500000000002823
 51
90.0
  0
LINE
  5
C65E
330
AA07
100
AcDbEntity
  8
OBJECT
100
AcDbLine
 10
2288.479782449978
 20
968.3138144142631
 30
0.0
 11
2288.254927995765
 21
976.9006595867249
 31
0.0
  0
ARC
  5
C65F
330
AA07
100
AcDbEntity
  8
OBJECT
100
AcDbCircle
 10
2288.979611112466
 20
968.326902888417
 30
0.0
 40
0.5
100
AcDbArc
 50
181.4999999999898
 51
270.0
  0
ARC
  5
C660
330
AA07
100
AcDbEntity
  8
OBJECT
100
AcDbCircle
 10
2287.255270670789
 20
976.874482638417
 30
0.0
 40
0.9999999999999994
100
AcDbArc
 50
1.500000000002823
 51
90.0
  0
ARC
  5
C661
330
AA07
100
AcDbEntity
  8
OBJECT
100
AcDbCircle
 10
2264.476705143656
 20
1298.710140990022
 30
0.0
 40
3.999475130823684
100
AcDbArc
 50
172.7562206734987
 51
352.2723033088114
  0
SPLINE
  5
C662
330
AA07
100
AcDbEntity
  8
OBJECT
100
AcDbSpline
210
0.0
220
0.0
230
1.0
 70
     8
 71
     3
 72
    30
 73
    26
 74
     0
 42
0.000000001
 43
0.0000000001
 40
0.0
 40
0.0
 40
0.0
 40
0.0
 40
0.2640201306021069
 40
0.3329633718900469
 40
1.363562337517786
 40
2.099611733656529
 40
3.162928563481293
 40
3.997986529910526
 40
4.82372776638387
 40
5.895113401222291
 40
6.853535391083811
 40
8.553548689710253
 40
10.45955305404111
 40
13.88251590330165
 40
18.58859128753954
 40
23.19358863547327
 40
28.42805730186347
 40
34.12629518127569
 40
39.27120683154531
 40
43.65934720311792
 40
48.55980870275879
 40
53.3215802610681
 40
58.39302183663801
 40
63.74394975104876
 40
66.14682208691413
 40
66.14682208691413
 40
66.14682208691413
 40
66.14682208691413
 10
2284.417537499479
 20
1271.330157916987
 30
0.0
 10
2284.417537499479
 20
1271.418164627188
 30
0.0
 10
2284.418835867966
 20
1271.529163489291
 30
0.0
 10
2284.432394824896
 20
1271.983478919908
 30
0.0
 10
2284.490408362113
 20
1272.594055846793
 30
0.0
 10
2284.658480978324
 20
1273.523089599851
 30
0.0
 10
2284.907239033984
 20
1274.367525833524
 30
0.0
 10
2285.246218102844
 20
1275.21145819227
 30
0.0
 10
2285.675014682866
 20
1276.016108220477
 30
0.0
 10
2286.192370275588
 20
1276.81819418658
 30
0.0
 10
2286.994925898464
 20
1277.768800148109
 30
0.0
 10
2288.11277693177
 20
1278.822430018512
 30
0.0
 10
2290.202527396078
 20
1279.91255216816
 30
0.0
 10
2293.20621552882
 20
1281.372735611996
 30
0.0
 10
2296.693650869838
 20
1283.863896433118
 30
0.0
 10
2299.882884844726
 20
1287.581374822955
 30
0.0
 10
2302.124869089957
 20
1292.319778916647
 30
0.0
 10
2303.062384270151
 20
1297.674698548561
 30
0.0
 10
2302.446980510097
 20
1302.784168551865
 30
0.0
 10
2300.678927895322
 20
1307.296839841606
 30
0.0
 10
2298.003906785309
 20
1311.208231196452
 30
0.0
 10
2294.221295771077
 20
1314.412530250598
 30
0.0
 10
2289.72622199498
 20
1316.821024051024
 30
0.0
 10
2285.532345746651
 20
1317.888864658702
 30
0.0
 10
2282.942790446912
 20
1318.028379127358
 30
0.0
 10
2282.139754934569
 20
1318.026902888417
 30
0.0
  0
SPLINE
  5
C663
330
AA07
100
AcDbEntity
  8
OBJECT
100
AcDbSpline
210
0.0
220
0.0
230
1.0
 70
  1064
 71
     3
 72
    31
 73
    27
 74
    25
 42
0.000000001
 43
0.0000000001
 44
0.0
 12
0.0
 22
1.0
 32
0.0
 13
-0.1728437267791398
 23
-0.9849492606795024
 33
0.0
 40
0.0
 40
0.0
 40
0.0
 40
0.0
 40
0.4439807097398781
 40
2.106107057859798
 40
4.040262806039494
 40
6.563574183569314
 40
9.613322681670258
 40
13.19947963070362
 40
16.49008394578233
 40
19.89270849152725
 40
22.94552682450132
 40
26.42682604685286
 40
30.98149608572518
 40
35.03839710990068
 40
38.35447771667617
 40
41.81105213226392
 40
45.45187108450573
 40
48.95428290351498
 40
52.48782702684213
 40
57.1772922915867
 40
60.92672919582481
 40
64.1102492959241
 40
67.99580114991804
 40
70.45584839070183
 40
72.3309637914799
 40
73.36308814205006
 40
73.36308814205006
 40
73.36308814205006
 40
73.36308814205006
 10
2276.417537499479
 20
1271.33776140152
 30
0.0
 10
2276.417537499479
 20
1271.485754971434
 30
0.0
 10
2276.428433628224
 20
1272.187811526006
 30
0.0
 10
2276.5360237801
 20
1273.532106900764
 30
0.0
 10
2276.88075458257
 20
1275.546971092119
 30
0.0
 10
2277.662881331644
 20
1277.935135313119
 30
0.0
 10
2279.053120522106
 20
1280.667882459569
 30
0.0
 10
2281.088006160536
 20
1283.310565796814
 30
0.0
 10
2283.733913745866
 20
1285.526971781478
 30
0.0
 10
2286.576858486622
 20
1287.116248033916
 30
0.0
 10
2289.61673581947
 20
1288.464566152853
 30
0.0
 10
2292.450169690879
 20
1290.93748580607
 30
0.0
 10
2294.490382336672
 20
1294.535371755745
 30
0.0
 10
2295.007534283799
 20
1298.578655576628
 30
0.0
 10
2294.219297372919
 20
1302.14558451774
 30
0.0
 10
2292.566655671754
 20
1305.270384287641
 30
0.0
 10
2289.876072161279
 20
1307.642952937358
 30
0.0
 10
2286.731691265526
 20
1309.386730758394
 30
0.0
 10
2282.858079640953
 20
1310.18724985221
 30
0.0
 10
2278.796941181221
 20
1309.925117788944
 30
0.0
 10
2275.176461809257
 20
1308.400392322129
 30
0.0
 10
2272.261097226213
 20
1306.238137027821
 30
0.0
 10
2270.238635665787
 20
1303.713287626982
 30
0.0
 10
2269.138220396057
 20
1301.194792612192
 30
0.0
 10
2268.599076138572
 20
1299.477651936288
 30
0.0
 10
2268.49932370847
 20
1298.511214100709
 30
0.0
 10
2268.439858302052
 20
1298.172350728702
 30
0.0
 11
2276.417537499479
 21
1271.33776140152
 31
0.0
 11
2276.424139588333
 21
1271.781693021304
 31
0.0
 11
2276.55159747512
 21
1273.438925197015
 31
0.0
 11
2276.88772537765
 21
1275.343649978015
 31
0.0
 11
2277.662420162528
 21
1277.745097103865
 31
0.0
 11
2279.046280078696
 21
1280.462797903087
 31
0.0
 11
2281.246596504139
 21
1283.294604621602
 31
0.0
 11
2283.760573949739
 21
1285.417808370994
 31
0.0
 11
2286.704402461166
 21
1287.124186844432
 31
0.0
 11
2289.413766754869
 21
1288.530972150778
 31
0.0
 11
2292.04497630933
 21
1290.810485378653
 31
0.0
 11
2294.272386377711
 21
1294.783351290092
 31
0.0
 11
2294.78039218278
 21
1298.808320361026
 31
0.0
 11
2294.090025319481
 21
1302.051742039545
 31
0.0
 11
2292.435750005537
 21
1305.086751080087
 31
0.0
 11
2289.765463081455
 21
1307.561651156066
 31
0.0
 11
2286.678350881419
 21
1309.21592647001
 31
0.0
 11
2283.226516564922
 21
1309.971422282677
 31
0.0
 11
2278.55025800031
 21
1309.61972595609
 31
0.0
 11
2275.08539789394
 21
1308.186889069998
 31
0.0
 11
2272.53234307872
 21
1306.285123748456
 31
0.0
 11
2270.122571952109
 21
1303.23708891804
 31
0.0
 11
2269.106560341971
 21
1300.996653059786
 31
0.0
 11
2268.594386284142
 21
1299.192841678094
 31
0.0
 11
2268.439858302052
 21
1298.172350728702
 31
0.0
  0
SPLINE
  5
C664
330
AA07
100
AcDbEntity
  8
OBJECT
100
AcDbSpline
210
0.0
220
0.0
230
1.0
 70
     8
 71
     3
 72
    13
 73
     9
 74
     0
 42
0.000000001
 43
0.0000000001
 40
66.14682208691413
 40
66.14682208691413
 40
66.14682208691413
 40
66.14682208691413
 40
69.62763314794135
 40
75.18826899705688
 40
81.69928739005721
 40
91.05353990899891
 40
94.41433518478215
 40
97.36364589846981
 40
97.36364589846981
 40
97.36364589846981
 40
97.36364589846981
 10
2282.139754934569
 20
1318.026902888417
 30
0.0
 10
2280.976474284143
 20
1318.024764402424
 30
0.0
 10
2277.951882521241
 20
1317.775499533811
 30
0.0
 10
2272.899966465553
 20
1316.395053315185
 30
0.0
 10
2266.76965339054
 20
1312.530232994703
 30
0.0
 10
2262.77314065325
 20
1307.203414834766
 30
0.0
 10
2261.083678148028
 20
1302.252750676464
 30
0.0
 10
2260.625961248943
 20
1300.190579231365
 30
0.0
 10
2260.509151242022
 20
1299.214439869365
 30
0.0
  0
LINE
  5
C665
330
AA07
100
AcDbEntity
  8
OBJECT
100
AcDbLine
 10
2276.417537499479
 20
1260.756498886644
 30
0.0
 11
2276.417537499479
 21
1271.33776140152
 31
0.0
  0
LINE
  5
C666
330
AA07
100
AcDbEntity
  8
OBJECT
100
AcDbLine
 10
2284.417537499479
 20
1260.75638273423
 30
0.0
 11
2284.417537499479
 21
1271.330157916987
 31
0.0
  0
LINE
  5
C667
330
AA07
100
AcDbEntity
  8
OBJECT
100
AcDbLine
 10
2275.416733472124
 20
980.274482638417
 30
0.0
 11
2285.416733472124
 21
980.274482638417
 31
0.0
  0
LINE
  5
C668
330
AA07
100
AcDbEntity
  8
OBJECT
100
AcDbLine
 10
2285.416733472124
 20
977.874482638417
 30
0.0
 11
2275.416733472124
 21
977.874482638417
 31
0.0
  0
LINE
  5
C669
330
AA07
100
AcDbEntity
  8
OBJECT
100
AcDbLine
 10
2274.416733472124
 20
978.874482638417
 30
0.0
 11
2274.416733472124
 21
979.274482638417
 31
0.0
  0
LINE
  5
C66A
330
AA07
100
AcDbEntity
  8
OBJECT
100
AcDbLine
 10
2286.416733472124
 20
978.874482638417
 30
0.0
 11
2286.416733472124
 21
979.274482638417
 31
0.0
  0
ARC
  5
C66B
330
AA07
100
AcDbEntity
  8
OBJECT
100
AcDbCircle
 10
2275.416733472124
 20
979.274482638417
 30
0.0
 40
0.9999999999999997
100
AcDbArc
 50
90.0
 51
180.0
  0
ARC
  5
C66C
330
AA07
100
AcDbEntity
  8
OBJECT
100
AcDbCircle
 10
2275.416733472124
 20
978.874482638417
 30
0.0
 40
0.9999999999999997
100
AcDbArc
 50
180.0
 51
270.0
  0
ARC
  5
C66D
330
AA07
100
AcDbEntity
  8
OBJECT
100
AcDbCircle
 10
2285.416733472124
 20
979.274482638417
 30
0.0
 40
0.9999999999999997
100
AcDbArc
 50
0.0
 51
90.0
  0
ARC
  5
C66E
330
AA07
100
AcDbEntity
  8
OBJECT
100
AcDbCircle
 10
2285.416733472124
 20
978.874482638417
 30
0.0
 40
0.9999999999999997
100
AcDbArc
 50
270.0
 51
0.0
  0
ENDSEC
  0
SECTION
  2
OBJECTS
  0
DICTIONARY
  5
A9F5
330
0
100
AcDbDictionary
  3
ACAD_DETAILVIEWSTYLE
350
AAF0
  3
ACAD_GROUP
350
A9F6
  3
ACAD_IMAGE_VARS
350
AAE7
  3
ACAD_MLINESTYLE
350
A9FF
  3
ACAD_SCALELIST
350
AABB
  3
ACAD_SECTIONVIEWSTYLE
350
AAF1
  3
ACADDIM
350
BF91
  3
ACDBVARIABLEDICTIONARY
350
AAEB
  3
APPDATA
350
AAE5
  3
CENTERLINE
350
AAF8
  3
DIMOFFSETDICTIONARY
350
AAF3
  3
DWGPROPS
350
C69C
  0
DICTIONARY
  5
AAE8
330
A9EB
100
AcDbDictionary
280
     1
  3
ACAD_LAYERSTATES
360
AAE9
  3
ACLYDICTIONARY
360
BF0E
  0
DICTIONARY
  5
AAF0
102
{ACAD_REACTORS
330
A9F5
102
}
330
A9F5
100
AcDbDictionary
  0
DICTIONARY
  5
A9F6
102
{ACAD_REACTORS
330
A9F5
102
}
330
A9F5
100
AcDbDictionary
  0
RASTERVARIABLES
  5
AAE7
102
{ACAD_REACTORS
330
A9F5
102
}
330
A9F5
100
AcDbRasterVariables
 90
        0
 70
     1
 71
     1
 72
     0
  0
DICTIONARY
  5
A9FF
102
{ACAD_REACTORS
330
A9F5
102
}
330
A9F5
100
AcDbDictionary
  3
STANDARD
350
AA00
  0
DICTIONARY
  5
AABB
102
{ACAD_REACTORS
330
A9F5
102
}
330
A9F5
100
AcDbDictionary
  0
DICTIONARY
  5
AAF1
102
{ACAD_REACTORS
330
A9F5
102
}
330
A9F5
100
AcDbDictionary
  0
XRECORD
  5
BF91
102
{ACAD_REACTORS
330
A9F5
102
}
330
A9F5
100
AcDbXrecord
340
0
 72
     0
 71
     0
 70
     0
 69
     0
 68
     1
 67
     3
 66
     0
 65
     0
 64
     0
 63
     3
 62
     1
 61
     0
 60
     0
 40
0.0
  0
DICTIONARY
  5
AAEB
102
{ACAD_REACTORS
330
A9F5
102
}
330
A9F5
100
AcDbDictionary
  0
DICTIONARY
  5
AAE5
102
{ACAD_REACTORS
330
A9F5
102
}
330
A9F5
100
AcDbDictionary
  0
DICTIONARY
  5
AAF8
102
{ACAD_REACTORS
330
A9F5
102
}
330
A9F5
100
AcDbDictionary
  3
CLEXTENSION
350
AB05
  0
DICTIONARY
  5
AAF3
102
{ACAD_REACTORS
330
A9F5
102
}
330
A9F5
100
AcDbDictionary
  3
DIMRAILANGLE
350
AB03
  3
DIMRAILFIRSTOFFSET
350
AB01
  3
DIMRAILOFFSET
350
AB02
  3
DIMRAILSENABLED
350
AB04
  0
XRECORD
  5
C69C
102
{ACAD_REACTORS
330
A9F5
102
}
330
A9F5
100
AcDbXrecord
  1
DWGPROPS COOKIE
  2

  3

  4

  6

  7

  8
ougi
  9

300
=
301
=
302
=
303
=
304
=
305
=
306
=
307
=
308
=
309
=
 40
0.0
 41
2452261.577194444
 42
2460322.292788634
  1

 90
        0
  0
DICTIONARY
  5
AAE9
102
{ACAD_REACTORS
330
AAE8
102
}
330
AAE8
100
AcDbDictionary
  0
DICTIONARY
  5
BF0E
102
{ACAD_REACTORS
330
AAE8
102
}
330
AAE8
100
AcDbDictionary
1001
ACAD
1000
<All
  0
MLINESTYLE
  5
AA00
102
{ACAD_REACTORS
330
A9FF
102
}
330
A9FF
100
AcDbMlineStyle
  2
STANDARD
 70
     0
  3

 62
   256
 51
90.0
 52
90.0
 71
     2
 49
0.5
 62
   256
  6
BYLAYER
 49
-0.5
 62
   256
  6
BYLAYER
  0
DICTIONARYVAR
  5
AB05
102
{ACAD_REACTORS
330
AAF8
102
}
330
AAF8
100
DictionaryVariables
280
     0
  1
0.250000
  0
DICTIONARYVAR
  5
AB03
102
{ACAD_REACTORS
330
AAF3
102
}
330
AAF3
100
DictionaryVariables
280
     0
  1
0.261799
  0
DICTIONARYVAR
  5
AB01
102
{ACAD_REACTORS
330
AAF3
102
}
330
AAF3
100
DictionaryVariables
280
     0
  1
0.400000
  0
DICTIONARYVAR
  5
AB02
102
{ACAD_REACTORS
330
AAF3
102
}
330
AAF3
100
DictionaryVariables
280
     0
  1
0.250000
  0
DICTIONARYVAR
  5
AB04
102
{ACAD_REACTORS
330
AAF3
102
}
330
AAF3
100
DictionaryVariables
280
     0
  1
0
  0
ENDSEC
  0
EOF
