  0
SECTION
  2
HEADER
  9
$ACADVER
  1
AC1014
  9
$ACADMAINTVER
 70
     9
  9
$DWGCODEPAGE
  3
ANSI_932
  9
$INSBASE
 10
0.0
 20
0.0
 30
0.0
  9
$EXTMIN
 10
2201.536096128303
 20
723.3351034135049
 30
0.0
  9
$EXTMAX
 10
2240.520867701908
 20
942.7406614081668
 30
0.0
  9
$LIMMIN
 10
0.0
 20
0.0
  9
$LIMMAX
 10
420.0
 20
297.0
  9
$ORTHOMODE
 70
     1
  9
$REGENMODE
 70
     1
  9
$FILLMODE
 70
     1
  9
$QTEXTMODE
 70
     0
  9
$MIRRTEXT
 70
     1
  9
$DRAGMODE
 70
     2
  9
$LTSCALE
 40
1.0
  9
$OSMODE
 70
    39
  9
$ATTMODE
 70
     1
  9
$TEXTSIZE
 40
10.0
  9
$TRACEWID
 40
1.0
  9
$TEXTSTYLE
  7
STANDARD
  9
$CLAYER
  8
0
  9
$CELTYPE
  6
BYLAYER
  9
$CECOLOR
 62
   256
  9
$CELTSCALE
 40
0.5
  9
$DELOBJ
 70
     1
  9
$DISPSILH
 70
     0
  9
$DIMSCALE
 40
1.0
  9
$DIMASZ
 40
2.5
  9
$DIMEXO
 40
0.625
  9
$DIMDLI
 40
3.75
  9
$DIMRND
 40
0.0
  9
$DIMDLE
 40
0.0
  9
$DIMEXE
 40
1.25
  9
$DIMTP
 40
0.0
  9
$DIMTM
 40
0.0
  9
$DIMTXT
 40
2.5
  9
$DIMCEN
 40
2.5
  9
$DIMTSZ
 40
0.0
  9
$DIMTOL
 70
     0
  9
$DIMLIM
 70
     0
  9
$DIMTIH
 70
     0
  9
$DIMTOH
 70
     0
  9
$DIMSE1
 70
     0
  9
$DIMSE2
 70
     0
  9
$DIMTAD
 70
     1
  9
$DIMZIN
 70
     8
  9
$DIMBLK
  1

  9
$DIMASO
 70
     1
  9
$DIMSHO
 70
     1
  9
$DIMPOST
  1

  9
$DIMAPOST
  1

  9
$DIMALT
 70
     0
  9
$DIMALTD
 70
     3
  9
$DIMALTF
 40
0.03937007874016
  9
$DIMLFAC
 40
1.0
  9
$DIMTOFL
 70
     1
  9
$DIMTVP
 40
0.0
  9
$DIMTIX
 70
     0
  9
$DIMSOXD
 70
     0
  9
$DIMSAH
 70
     0
  9
$DIMBLK1
  1

  9
$DIMBLK2
  1

  9
$DIMSTYLE
  2
ISO-25
  9
$DIMCLRD
 70
     0
  9
$DIMCLRE
 70
     0
  9
$DIMCLRT
 70
     0
  9
$DIMTFAC
 40
1.0
  9
$DIMGAP
 40
0.625
  9
$DIMJUST
 70
     0
  9
$DIMSD1
 70
     0
  9
$DIMSD2
 70
     0
  9
$DIMTOLJ
 70
     0
  9
$DIMTZIN
 70
     8
  9
$DIMALTZ
 70
     0
  9
$DIMALTTZ
 70
     0
  9
$DIMFIT
 70
     3
  9
$DIMUPT
 70
     0
  9
$DIMUNIT
 70
     2
  9
$DIMDEC
 70
     1
  9
$DIMTDEC
 70
     1
  9
$DIMALTU
 70
     2
  9
$DIMALTTD
 70
     3
  9
$DIMTXSTY
  7
STANDARD
  9
$DIMAUNIT
 70
     0
  9
$LUNITS
 70
     2
  9
$LUPREC
 70
     4
  9
$SKETCHINC
 40
1.0
  9
$FILLETRAD
 40
5.0
  9
$AUNITS
 70
     0
  9
$AUPREC
 70
     0
  9
$MENU
  1
.
  9
$ELEVATION
 40
0.0
  9
$PELEVATION
 40
0.0
  9
$THICKNESS
 40
0.0
  9
$LIMCHECK
 70
     0
  9
$BLIPMODE
 70
     0
  9
$CHAMFERA
 40
10.0
  9
$CHAMFERB
 40
10.0
  9
$CHAMFERC
 40
20.0
  9
$CHAMFERD
 40
0.0
  9
$SKPOLY
 70
     0
  9
$TDCREATE
 40
2452262.702194444
  9
$TDUPDATE
 40
2457767.463392685
  9
$TDINDWG
 40
0.5527126620
  9
$TDUSRTIMER
 40
0.5527119676
  9
$USRTIMER
 70
     1
  9
$ANGBASE
 50
0.0
  9
$ANGDIR
 70
     0
  9
$PDMODE
 70
     0
  9
$PDSIZE
 40
0.0
  9
$PLINEWID
 40
0.0
  9
$COORDS
 70
     1
  9
$SPLFRAME
 70
     0
  9
$SPLINETYPE
 70
     6
  9
$SPLINESEGS
 70
     8
  9
$ATTDIA
 70
     0
  9
$ATTREQ
 70
     1
  9
$HANDLING
 70
 10241
  9
$HANDSEED
  5
1345
  9
$SURFTAB1
 70
     6
  9
$SURFTAB2
 70
     6
  9
$SURFTYPE
 70
     6
  9
$SURFU
 70
     6
  9
$SURFV
 70
     6
  9
$UCSNAME
  2

  9
$UCSORG
 10
0.0
 20
0.0
 30
0.0
  9
$UCSXDIR
 10
1.0
 20
0.0
 30
0.0
  9
$UCSYDIR
 10
0.0
 20
1.0
 30
0.0
  9
$PUCSNAME
  2

  9
$PUCSORG
 10
0.0
 20
0.0
 30
0.0
  9
$PUCSXDIR
 10
1.0
 20
0.0
 30
0.0
  9
$PUCSYDIR
 10
0.0
 20
1.0
 30
0.0
  9
$USERI1
 70
     0
  9
$USERI2
 70
     0
  9
$USERI3
 70
     0
  9
$USERI4
 70
     0
  9
$USERI5
 70
     0
  9
$USERR1
 40
0.0
  9
$USERR2
 40
0.0
  9
$USERR3
 40
0.0
  9
$USERR4
 40
0.0
  9
$USERR5
 40
0.0
  9
$WORLDVIEW
 70
     1
  9
$SHADEDGE
 70
     3
  9
$SHADEDIF
 70
    70
  9
$TILEMODE
 70
     1
  9
$MAXACTVP
 70
    64
  9
$PINSBASE
 10
0.0
 20
0.0
 30
0.0
  9
$PLIMCHECK
 70
     0
  9
$PEXTMIN
 10
0.0
 20
0.0
 30
0.0
  9
$PEXTMAX
 10
0.0
 20
0.0
 30
0.0
  9
$PLIMMIN
 10
0.0
 20
0.0
  9
$PLIMMAX
 10
0.0
 20
0.0
  9
$UNITMODE
 70
     0
  9
$VISRETAIN
 70
     1
  9
$PLINEGEN
 70
     0
  9
$PSLTSCALE
 70
     1
  9
$TREEDEPTH
 70
  3020
  9
$PICKSTYLE
 70
     1
  9
$CMLSTYLE
  2
STANDARD
  9
$CMLJUST
 70
     0
  9
$CMLSCALE
 40
20.0
  9
$PROXYGRAPHICS
 70
     1
  9
$MEASUREMENT
 70
     1
  0
ENDSEC
  0
SECTION
  2
CLASSES
  0
CLASS
  1
ACDBDICTIONARYWDFLT
  2
AcDbDictionaryWithDefault
  3
AutoCAD 2000
 90
        0
280
     0
281
     0
  0
CLASS
  1
ACDBPLACEHOLDER
  2
AcDbPlaceHolder
  3
AutoCAD 2000
 90
        0
280
     0
281
     0
  0
CLASS
  1
LAYOUT
  2
AcDbLayout
  3
AutoCAD 2000
 90
        0
280
     0
281
     0
  0
CLASS
  1
LONG_TRANSACTION
  2
AcDbLongTransaction
  3
AutoCAD 2000
 90
        0
280
     0
281
     0
  0
CLASS
  1
LWPOLYLINE
  2
AcDbPolyline
  3
AutoCAD 2000
 90
        0
280
     0
281
     1
  0
CLASS
  1
HATCH
  2
AcDbHatch
  3
AutoCAD 2000
 90
        0
280
     0
281
     1
  0
CLASS
  1
XRECORD
  2
AcDbXrecord
  3
AutoCAD 2000
 90
        0
280
     0
281
     0
  0
ENDSEC
  0
SECTION
  2
TABLES
  0
TABLE
  2
VPORT
  5
8
330
0
100
AcDbSymbolTable
 70
     2
  0
VPORT
  5
131E
330
8
100
AcDbSymbolTableRecord
100
AcDbViewportTableRecord
  2
*ACTIVE
 70
     0
 10
0.0
 20
0.0
 11
1.0
 21
1.0
 12
2241.310874292068
 22
835.4167550747204
 13
0.0
 23
0.0
 14
10.0
 24
10.0
 15
10.0
 25
10.0
 16
0.0
 26
0.0
 36
1.0
 17
0.0
 27
0.0
 37
0.0
 40
299.6266181087583
 41
1.585635359116022
 42
50.0
 43
0.0
 44
0.0
 50
0.0
 51
0.0
 71
     0
 72
   100
 73
     1
 74
     3
 75
     0
 76
     0
 77
     0
 78
     0
  0
ENDTAB
  0
TABLE
  2
LTYPE
  5
5
330
0
100
AcDbSymbolTable
 70
     4
  0
LTYPE
  5
14
330
5
100
AcDbSymbolTableRecord
100
AcDbLinetypeTableRecord
  2
BYBLOCK
 70
     0
  3

 72
    65
 73
     0
 40
0.0
  0
LTYPE
  5
15
330
5
100
AcDbSymbolTableRecord
100
AcDbLinetypeTableRecord
  2
BYLAYER
 70
     0
  3

 72
    65
 73
     0
 40
0.0
  0
LTYPE
  5
16
330
5
100
AcDbSymbolTableRecord
100
AcDbLinetypeTableRecord
  2
CONTINUOUS
 70
     0
  3
Solid line
 72
    65
 73
     0
 40
0.0
  0
LTYPE
  5
2D
330
5
100
AcDbSymbolTableRecord
100
AcDbLinetypeTableRecord
  2
CENTER2
 70
     0
  3
Center (.5x) ___ _ ___ _ ___ _ ___ _ ___ _ ___
 72
    65
 73
     4
 40
28.57499999999999
 49
19.05
 74
     0
 49
-3.174999999999999
 74
     0
 49
3.174999999999999
 74
     0
 49
-3.174999999999999
 74
     0
  0
LTYPE
  5
2E
330
5
100
AcDbSymbolTableRecord
100
AcDbLinetypeTableRecord
  2
PHANTOM2
 70
     0
  3
Phantom (.5x) ___ _ _ ___ _ _ ___ _ _ ___ _ _
 72
    65
 73
     6
 40
31.75
 49
15.875
 74
     0
 49
-3.174999999999999
 74
     0
 49
3.174999999999999
 74
     0
 49
-3.174999999999999
 74
     0
 49
3.174999999999999
 74
     0
 49
-3.174999999999999
 74
     0
  0
LTYPE
  5
2F
330
5
100
AcDbSymbolTableRecord
100
AcDbLinetypeTableRecord
  2
HIDDEN2
 70
     0
  3
Hidden (.5x) _ _ _ _ _ _ _ _ _ _ _ _ _ _ _ _ _
 72
    65
 73
     2
 40
4.762499999999999
 49
3.174999999999999
 74
     0
 49
-1.587499999999999
 74
     0
  0
ENDTAB
  0
TABLE
  2
LAYER
  5
2
330
0
100
AcDbSymbolTable
 70
     8
  0
LAYER
  5
10
330
2
100
AcDbSymbolTableRecord
100
AcDbLayerTableRecord
  2
0
 70
     0
 62
     7
  6
CONTINUOUS
  0
LAYER
  5
30
330
2
100
AcDbSymbolTableRecord
100
AcDbLayerTableRecord
  2
CENTER
 70
     0
 62
     6
  6
CENTER2
  0
LAYER
  5
31
330
2
100
AcDbSymbolTableRecord
100
AcDbLayerTableRecord
  2
HIDDEN
 70
     0
 62
     5
  6
HIDDEN2
  0
LAYER
  5
33
330
2
100
AcDbSymbolTableRecord
100
AcDbLayerTableRecord
  2
DIM
 70
     0
 62
     2
  6
CONTINUOUS
  0
LAYER
  5
15D
330
2
100
AcDbSymbolTableRecord
100
AcDbLayerTableRecord
  2
DEFPOINTS
 70
     0
 62
     7
  6
CONTINUOUS
  0
LAYER
  5
2C4
330
2
100
AcDbSymbolTableRecord
100
AcDbLayerTableRecord
  2
1
 70
     0
 62
     1
  6
CONTINUOUS
  0
LAYER
  5
7A2
330
2
100
AcDbSymbolTableRecord
100
AcDbLayerTableRecord
  2
LED素子
 70
     0
 62
    30
  6
CONTINUOUS
  0
LAYER
  5
C43
330
2
100
AcDbSymbolTableRecord
100
AcDbLayerTableRecord
  2
OBJECT
 70
     0
 62
     7
  6
CONTINUOUS
  0
ENDTAB
  0
TABLE
  2
STYLE
  5
3
330
0
100
AcDbSymbolTable
 70
     4
  0
STYLE
  5
11
330
3
100
AcDbSymbolTableRecord
100
AcDbTextStyleTableRecord
  2
STANDARD
 70
     0
 40
0.0
 41
1.0
 50
0.0
 71
     0
 42
10.0
  3
txt
  4

  0
STYLE
  5
2C
330
3
100
AcDbSymbolTableRecord
100
AcDbTextStyleTableRecord
  2

 70
     1
 40
0.0
 41
1.0
 50
0.0
 71
     0
 42
2.5
  3
ltypeshp.shx
  4

  0
STYLE
  5
6E
330
3
100
AcDbSymbolTableRecord
100
AcDbTextStyleTableRecord
  2
ADESK1
 70
     0
 40
0.0
 41
1.0
 50
0.0
 71
     0
 42
5.0
  3
romans
  4
bigfont
  0
STYLE
  5
6F
330
3
100
AcDbSymbolTableRecord
100
AcDbTextStyleTableRecord
  2
STYLE1
 70
     0
 40
0.0
 41
1.0
 50
0.0
 71
     0
 42
2.5
  3

  4

1001
ACAD
1000
MS PMincho
1071
    32786
  0
ENDTAB
  0
TABLE
  2
VIEW
  5
6
330
0
100
AcDbSymbolTable
 70
     0
  0
ENDTAB
  0
TABLE
  2
UCS
  5
7
330
0
100
AcDbSymbolTable
 70
     0
  0
ENDTAB
  0
TABLE
  2
APPID
  5
9
330
0
100
AcDbSymbolTable
 70
     1
  0
APPID
  5
12
330
9
100
AcDbSymbolTableRecord
100
AcDbRegAppTableRecord
  2
ACAD
 70
     0
  0
ENDTAB
  0
TABLE
  2
DIMSTYLE
  5
A
330
0
100
AcDbSymbolTable
 70
     4
  0
DIMSTYLE
105
27
330
A
100
AcDbSymbolTableRecord
100
AcDbDimStyleTableRecord
  2
ISO-25
 70
     0
  3

  4

  5

  6

  7

 40
1.0
 41
2.5
 42
0.625
 43
3.75
 44
1.25
 45
0.0
 46
0.0
 47
0.0
 48
0.0
140
2.5
141
2.5
142
0.0
143
0.03937007874016
144
1.0
145
0.0
146
1.0
147
0.625
 71
     0
 72
     0
 73
     0
 74
     0
 75
     0
 76
     0
 77
     1
 78
     8
170
     0
171
     3
172
     1
173
     0
174
     0
175
     0
176
     0
177
     0
178
     0
270
     2
271
     2
272
     2
273
     2
274
     3
340
11
275
     0
280
     0
281
     0
282
     0
283
     0
284
     8
285
     0
286
     0
287
     3
288
     0
  0
DIMSTYLE
105
70
330
A
100
AcDbSymbolTableRecord
100
AcDbDimStyleTableRecord
  2
STANDARD
 70
     0
  3

  4

  5
OPEN30
  6

  7

 40
1.0
 41
3.0
 42
0.0625
 43
0.38
 44
2.0
 45
0.0
 46
0.0
 47
0.0
 48
0.0
140
2.5
141
2.5
142
0.0
143
25.4
144
1.0
145
0.0
146
1.0
147
1.0
 71
     0
 72
     0
 73
     0
 74
     0
 75
     0
 76
     0
 77
     1
 78
     0
170
     0
171
     2
172
     0
173
     0
174
     0
175
     0
176
     0
177
     0
178
     0
270
     2
271
     1
272
     1
273
     2
274
     2
340
11
275
     0
280
     0
281
     0
282
     0
283
     1
284
     0
285
     0
286
     0
287
     0
288
     0
  0
DIMSTYLE
105
71
330
A
100
AcDbSymbolTableRecord
100
AcDbDimStyleTableRecord
  2
JIS
 70
     0
  3

  4

  5

  6

  7

 40
1.0
 41
2.5
 42
1.0
 43
7.0
 44
1.0
 45
0.0
 46
0.0
 47
0.0
 48
0.0
140
2.5
141
0.0
142
0.0
143
0.0394
144
1.0
145
0.0
146
1.0
147
0.0
 71
     0
 72
     0
 73
     0
 74
     0
 75
     0
 76
     0
 77
     1
 78
     8
170
     0
171
     2
172
     1
173
     0
174
     1
175
     1
176
     0
177
     0
178
     0
270
     2
271
     4
272
     4
273
     2
274
     2
340
11
275
     0
280
     0
281
     0
282
     0
283
     1
284
     0
285
     0
286
     0
287
     3
288
     0
  0
DIMSTYLE
105
624
330
A
100
AcDbSymbolTableRecord
100
AcDbDimStyleTableRecord
  2
STANDARD_WS
 70
     0
  3

  4

  5

  6

  7

 40
1.346801346801346
 41
2.5
 42
0.625
 43
3.75
 44
1.25
 45
0.0
 46
0.0
 47
0.0
 48
0.0
140
2.5
141
2.5
142
0.0
143
0.0394
144
1.0
145
0.0
146
1.0
147
0.625
 71
     0
 72
     0
 73
     0
 74
     0
 75
     0
 76
     0
 77
     1
 78
     8
170
     0
171
     4
172
     1
173
     0
174
     0
175
     0
176
     0
177
     0
178
     0
270
     2
271
     4
272
     4
273
     8
274
     4
340
11
275
     0
280
     0
281
     0
282
     0
283
     1
284
     0
285
     0
286
     0
287
     3
288
     0
  0
ENDTAB
  0
TABLE
  2
BLOCK_RECORD
  5
1
330
0
100
AcDbSymbolTable
 70
     3
  0
BLOCK_RECORD
  5
1F
102
{ACAD_XDICTIONARY
360
1341
102
}
330
1
100
AcDbSymbolTableRecord
100
AcDbBlockTableRecord
  2
*MODEL_SPACE
  0
BLOCK_RECORD
  5
1B
102
{ACAD_XDICTIONARY
360
133F
102
}
330
1
100
AcDbSymbolTableRecord
100
AcDbBlockTableRecord
  2
*PAPER_SPACE
  0
BLOCK_RECORD
  5
68
330
1
100
AcDbSymbolTableRecord
100
AcDbBlockTableRecord
  2
_OPEN30
  0
BLOCK_RECORD
  5
2C5
330
1
100
AcDbSymbolTableRecord
100
AcDbBlockTableRecord
  2
A$C51897F58
  0
ENDTAB
  0
ENDSEC
  0
SECTION
  2
BLOCKS
  0
BLOCK
  5
20
330
1F
100
AcDbEntity
  8
0
100
AcDbBlockBegin
  2
*MODEL_SPACE
 70
     0
 10
0.0
 20
0.0
 30
0.0
  3
*MODEL_SPACE
  1

  0
ENDBLK
  5
21
330
1F
100
AcDbEntity
  8
0
100
AcDbBlockEnd
  0
BLOCK
  5
1C
330
1B
100
AcDbEntity
 67
     1
  8
0
100
AcDbBlockBegin
  2
*PAPER_SPACE
 70
     0
 10
0.0
 20
0.0
 30
0.0
  3
*PAPER_SPACE
  1

  0
ENDBLK
  5
1D
330
1B
100
AcDbEntity
 67
     1
  8
0
100
AcDbBlockEnd
  0
BLOCK
  5
6C
330
68
100
AcDbEntity
  8
0
100
AcDbBlockBegin
  2
_OPEN30
 70
     0
 10
0.0
 20
0.0
 30
0.0
  3
_OPEN30
  1

  0
LINE
  5
69
330
68
100
AcDbEntity
  8
0
 62
     0
100
AcDbLine
 10
-1.0
 20
0.26794919
 30
0.0
 11
0.0
 21
0.0
 31
0.0
  0
LINE
  5
6A
330
68
100
AcDbEntity
  8
0
 62
     0
100
AcDbLine
 10
0.0
 20
0.0
 30
0.0
 11
-1.0
 21
-0.26794919
 31
0.0
  0
LINE
  5
6B
330
68
100
AcDbEntity
  8
0
 62
     0
100
AcDbLine
 10
0.0
 20
0.0
 30
0.0
 11
-1.0
 21
0.0
 31
0.0
  0
ENDBLK
  5
6D
330
68
100
AcDbEntity
  8
0
100
AcDbBlockEnd
  0
BLOCK
  5
2FA
330
2C5
100
AcDbEntity
  8
0
 48
0.5
100
AcDbBlockBegin
  2
A$C51897F58
 70
     0
 10
0.0
 20
0.0
 30
0.0
  3
A$C51897F58
  1

  0
LINE
  5
2C6
330
2C5
100
AcDbEntity
  8
1
100
AcDbLine
 10
76.2952075187882
 20
104.8488029131382
 30
-0.0000000000046929
 11
76.29520751878797
 21
10.84880291313834
 31
-0.0000000000046929
  0
LINE
  5
2C7
330
2C5
100
AcDbEntity
  8
1
100
AcDbLine
 10
12.29520751878831
 20
104.8488029131384
 30
-0.0000000000044971
 11
12.29520751878797
 21
10.84880291313845
 31
-0.0000000000044971
  0
LINE
  5
2C8
330
2C5
100
AcDbEntity
  8
CENTER
  6
CENTER2
 48
0.3
100
AcDbLine
 10
44.29520751878832
 20
112.8488029131383
 30
-0.000000000004595
 11
44.29520751878899
 21
-0.0000003467640397
 31
-0.000000000004595
  0
LINE
  5
2C9
330
2C5
100
AcDbEntity
  8
1
100
AcDbLine
 10
84.2952075187882
 20
108.8488029131382
 30
-0.0000000000047038
 11
84.29520751878797
 21
6.848802913138342
 31
-0.0000000000047038
  0
LINE
  5
2CA
330
2C5
100
AcDbEntity
  8
1
100
AcDbLine
 10
4.295207518788316
 20
108.8488029131384
 30
-0.0000000000044862
 11
4.295207518787975
 21
6.848802913138456
 31
-0.0000000000044862
  0
LINE
  5
2CB
330
2C5
100
AcDbEntity
  8
1
100
AcDbLine
 10
8.295207518788316
 20
108.8488029131384
 30
-0.0000000000044916
 11
8.295207518787975
 21
6.848802913138456
 31
-0.0000000000044916
  0
LINE
  5
2CC
330
2C5
100
AcDbEntity
  8
1
100
AcDbLine
 10
80.2952075187882
 20
108.8488029131382
 30
-0.0000000000046984
 11
80.29520751878797
 21
6.848802913138342
 31
-0.0000000000046984
  0
LINE
  5
2CD
330
2C5
100
AcDbEntity
  8
1
100
AcDbLine
 10
76.29520751878803
 20
10.84880291313835
 30
-0.000000000004682
 11
12.29520751878797
 21
10.84880291313845
 31
-0.0000000000045079
  0
LINE
  5
2CE
330
2C5
100
AcDbEntity
  8
1
100
AcDbLine
 10
80.29520751878797
 20
2.848802913138342
 30
-0.0000000000046929
 11
8.295207518787975
 21
2.848802913138456
 31
-0.0000000000044971
  0
LINE
  5
2CF
330
2C5
100
AcDbEntity
  8
1
100
AcDbLine
 10
80.29520751878797
 20
6.848802913138342
 30
-0.0000000000046929
 11
8.295207518787975
 21
6.848802913138456
 31
-0.0000000000044971
  0
ARC
  5
2D0
330
2C5
100
AcDbEntity
  8
1
100
AcDbCircle
 10
8.295207518787975
 20
6.848802913138484
 30
-0.0000000000001732
 40
4.0
100
AcDbArc
 50
180.0
 51
270.0
  0
ARC
  5
2D1
330
2C5
100
AcDbEntity
  8
1
100
AcDbCircle
 10
80.29520751878797
 20
6.848802913138371
 30
-0.0000000000001732
 40
4.0
100
AcDbArc
 50
270.0
 51
0.0
  0
LINE
  5
2D2
330
2C5
100
AcDbEntity
  8
CENTER
  6
CENTER2
 48
0.3
100
AcDbLine
 10
0.0000003224429577
 20
57.84880291313846
 30
0.0000000000003685
 11
88.85278162162448
 21
57.84880291313837
 31
0.0000000000003836
  0
LINE
  5
2D3
330
2C5
100
AcDbEntity
  8
1
100
AcDbLine
 10
34.2952075187882
 20
112.8488029131383
 30
-0.0000000000045678
 11
8.295207518788316
 21
112.8488029131384
 31
-0.0000000000044971
  0
LINE
  5
2D4
330
2C5
100
AcDbEntity
  8
1
100
AcDbLine
 10
34.2952075187882
 20
108.8488029131383
 30
-0.0000000000045678
 11
8.295207518788316
 21
108.8488029131384
 31
-0.0000000000044971
  0
LINE
  5
2D5
330
2C5
100
AcDbEntity
  8
1
100
AcDbLine
 10
76.2952075187882
 20
104.8488029131382
 30
-0.000000000004682
 11
12.29520751878831
 21
104.8488029131384
 31
-0.0000000000045079
  0
ARC
  5
2D6
330
2C5
100
AcDbEntity
  8
1
100
AcDbCircle
 10
8.295207518788316
 20
108.8488029131384
 30
-0.0000000000001732
 40
4.0
100
AcDbArc
 50
90.0
 51
180.0
  0
LINE
  5
2D7
330
2C5
100
AcDbEntity
  8
1
 48
0.2
100
AcDbLine
 10
54.2952075187882
 20
112.8488029131382
 30
-0.0000000000046086
 11
54.2952075187882
 21
103.8488029131382
 31
-0.0000000000046086
  0
LINE
  5
2D8
330
2C5
100
AcDbEntity
  8
1
 48
0.2
100
AcDbLine
 10
34.2952075187882
 20
112.8488029131383
 30
-0.0000000000045814
 11
34.2952075187882
 21
103.8488029131383
 31
-0.0000000000045814
  0
LINE
  5
2D9
330
2C5
100
AcDbEntity
  8
1
100
AcDbLine
 10
54.2952075187882
 20
103.8488029131382
 30
-0.0000000000046222
 11
34.2952075187882
 21
103.8488029131383
 31
-0.0000000000045678
  0
LINE
  5
2DA
330
2C5
100
AcDbEntity
  8
1
100
AcDbLine
 10
80.2952075187882
 20
112.8488029131382
 30
-0.0000000000046929
 11
54.2952075187882
 21
112.8488029131383
 31
-0.0000000000046222
  0
LINE
  5
2DB
330
2C5
100
AcDbEntity
  8
1
100
AcDbLine
 10
80.2952075187882
 20
108.8488029131382
 30
-0.0000000000046929
 11
54.2952075187882
 21
108.8488029131383
 31
-0.0000000000046222
  0
ARC
  5
2DC
330
2C5
100
AcDbEntity
  8
1
100
AcDbCircle
 10
80.2952075187882
 20
108.8488029131382
 30
-0.0000000000001732
 40
4.0
100
AcDbArc
 50
0.0
 51
90.0
  0
LINE
  5
2DD
330
2C5
100
AcDbEntity
  8
1
 48
0.3
100
AcDbLine
 10
54.24850631988579
 20
148.013008971311
 30
0.0000000000002508
 11
54.24850631988559
 21
158.013008971311
 31
0.0000000000002508
  0
LINE
  5
2DE
330
2C5
100
AcDbEntity
  8
1
 48
0.3
100
AcDbLine
 10
34.24850631988576
 20
148.0130089713107
 30
0.000000000000278
 11
34.24850631988559
 21
158.0130089713107
 31
0.000000000000278
  0
LINE
  5
2DF
330
2C5
100
AcDbEntity
  8
CENTER
  6
CENTER2
 48
0.3
100
AcDbLine
 10
44.24850631988587
 20
142.95532547971
 30
0.0000000000002644
 11
44.24850631988554
 21
161.5087185147079
 31
0.0000000000002644
  0
LINE
  5
2E0
330
2C5
100
AcDbEntity
  8
1
100
AcDbLine
 10
84.2485063198856
 20
154.0130089713114
 30
0.0000000000002644
 11
84.2485063198856
 21
157.0130089713114
 31
0.0000000000002644
  0
LINE
  5
2E1
330
2C5
100
AcDbEntity
  8
1
100
AcDbLine
 10
4.248506319885592
 20
154.0130089713103
 30
0.0000000000002644
 11
4.248506319885592
 21
157.0130089713103
 31
0.0000000000002644
  0
LINE
  5
2E2
330
2C5
100
AcDbEntity
  8
1
100
AcDbLine
 10
8.248506319885734
 20
148.0130089713103
 30
0.0000000000002644
 11
80.24850631988574
 21
148.0130089713114
 31
0.0000000000002644
  0
LINE
  5
2E3
330
2C5
100
AcDbEntity
  8
1
100
AcDbLine
 10
4.248506319885578
 20
154.0130089713103
 30
0.0000000000002644
 11
84.2485063198856
 21
154.0130089713114
 31
0.0000000000002644
  0
LINE
  5
2E4
330
2C5
100
AcDbEntity
  8
1
100
AcDbLine
 10
8.248506319885748
 20
148.0130089713104
 30
0.0000000000002589
 11
8.248506319885592
 21
154.0130089713103
 31
0.0000000000002589
  0
LINE
  5
2E5
330
2C5
100
AcDbEntity
  8
HIDDEN
100
AcDbLine
 10
12.24850631988576
 20
148.0130089713104
 30
0.0000000000002535
 11
12.24850631988559
 21
154.0130089713104
 31
0.0000000000002535
  0
LINE
  5
2E6
330
2C5
100
AcDbEntity
  8
HIDDEN
  6
HIDDEN2
 48
0.3
100
AcDbLine
 10
34.24850631988565
 20
155.0130089713107
 30
0.0000000000002644
 11
54.24850631988568
 21
155.013008971311
 31
0.0000000000002644
  0
LINE
  5
2E7
330
2C5
100
AcDbEntity
  8
1
100
AcDbLine
 10
80.24850631988575
 20
148.0130089713114
 30
0.0000000000002698
 11
80.24850631988559
 21
154.0130089713114
 31
0.0000000000002698
  0
LINE
  5
2E8
330
2C5
100
AcDbEntity
  8
HIDDEN
100
AcDbLine
 10
76.24850631988576
 20
148.0130089713113
 30
0.0000000000002753
 11
76.24850631988559
 21
154.0130089713113
 31
0.0000000000002753
  0
LINE
  5
2E9
330
2C5
100
AcDbEntity
  8
1
100
AcDbLine
 10
5.248506319885578
 20
158.0130089713103
 30
0.0000000000002644
 11
83.24850631988557
 21
158.0130089713114
 31
0.0000000000002644
  0
ARC
  5
2EA
330
2C5
100
AcDbEntity
  8
1
100
AcDbCircle
 10
5.248506319885592
 20
157.0130089713103
 30
0.0000000000002644
 40
1.0
100
AcDbArc
 50
90.00000000000081
 51
180.0
  0
ARC
  5
2EB
330
2C5
100
AcDbEntity
  8
1
100
AcDbCircle
 10
83.24850631988558
 20
157.0130089713114
 30
0.0000000000002644
 40
1.0
100
AcDbArc
 50
0.0
 51
90.00000000000081
  0
LINE
  5
2EC
330
2C5
100
AcDbEntity
  8
1
100
AcDbLine
 10
156.132279605157
 20
108.8137431284333
 30
-0.0000000000003743
 11
156.1322796051574
 21
6.883862697845941
 31
-0.0000000000003743
  0
LINE
  5
2ED
330
2C5
100
AcDbEntity
  8
1
100
AcDbLine
 10
162.132279605157
 20
112.8488029131393
 30
-0.0000000000003824
 11
162.1322796051574
 21
2.848802913139323
 31
-0.0000000000003824
  0
LINE
  5
2EE
330
2C5
100
AcDbEntity
  8
1
100
AcDbLine
 10
166.1322796051569
 20
111.8488029131393
 30
-0.0000000000003879
 11
166.1322796051574
 21
3.848802913139323
 31
-0.0000000000003879
  0
LINE
  5
2EF
330
2C5
100
AcDbEntity
  8
1
100
AcDbLine
 10
162.1322796051574
 20
2.848802913139323
 30
-0.0000000000003824
 11
165.1322796051574
 21
2.848802913139323
 31
-0.0000000000003865
  0
LINE
  5
2F0
330
2C5
100
AcDbEntity
  8
HIDDEN
 48
0.2
100
AcDbLine
 10
158.1322796051571
 20
10.88386269784594
 30
-0.000000000000377
 11
166.1322796051574
 21
10.88386269784594
 31
-0.0000000000003879
  0
LINE
  5
2F1
330
2C5
100
AcDbEntity
  8
1
100
AcDbLine
 10
156.1322796051574
 20
6.883862697845941
 30
-0.0000000000003743
 11
162.132279605157
 21
6.883862697845941
 31
-0.0000000000003824
  0
LINE
  5
2F2
330
2C5
100
AcDbEntity
  8
CENTER
  6
CENTER2
 48
0.3
100
AcDbLine
 10
153.5094648887696
 20
57.84880291313934
 30
0.0000000000001597
 11
177.1636479841034
 21
57.84880291313888
 31
0.0000000000002635
  0
ARC
  5
2F3
330
2C5
100
AcDbEntity
  8
1
100
AcDbCircle
 10
165.1322796051574
 20
3.848802913139323
 30
0.0
 40
1.0
100
AcDbArc
 50
270.0
 51
0.0
  0
LINE
  5
2F4
330
2C5
100
AcDbEntity
  8
HIDDEN
 48
0.2
100
AcDbLine
 10
163.3393863863436
 20
104.8137431284333
 30
-0.0000000000003841
 11
166.132279605157
 21
104.8137431284334
 31
-0.0000000000003879
  0
LINE
  5
2F5
330
2C5
100
AcDbEntity
  8
HIDDEN
 48
0.2
100
AcDbLine
 10
158.1322796051571
 20
104.8137431284333
 30
-0.000000000000377
 11
162.132279605157
 21
104.8137431284333
 31
-0.0000000000003824
  0
LINE
  5
2F6
330
2C5
100
AcDbEntity
  8
HIDDEN
  6
HIDDEN2
 48
0.3
100
AcDbLine
 10
162.132279605157
 20
103.6066363472467
 30
-0.0000000000003824
 11
163.3393863863436
 21
104.8137431284333
 31
-0.0000000000003841
  0
LINE
  5
2F7
330
2C5
100
AcDbEntity
  8
1
100
AcDbLine
 10
162.132279605157
 20
112.8488029131393
 30
-0.0000000000003824
 11
165.1322796051569
 21
112.8488029131393
 31
-0.0000000000003865
  0
LINE
  5
2F8
330
2C5
100
AcDbEntity
  8
1
100
AcDbLine
 10
156.132279605157
 20
108.8137431284333
 30
-0.0000000000003743
 11
162.132279605157
 21
108.8137431284333
 31
-0.0000000000003824
  0
ARC
  5
2F9
330
2C5
100
AcDbEntity
  8
1
100
AcDbCircle
 10
165.1322796051569
 20
111.8488029131393
 30
0.0
 40
1.0
100
AcDbArc
 50
0.0
 51
90.0
  0
ENDBLK
  5
2FB
330
2C5
100
AcDbEntity
  8
0
 48
0.5
100
AcDbBlockEnd
  0
ENDSEC
  0
SECTION
  2
ENTITIES
  0
LINE
  5
AEA
330
1F
100
AcDbEntity
  8
OBJECT
 48
0.5
100
AcDbLine
 10
2225.028481915106
 20
777.5549943056416
 30
0.0
 11
2223.028481915105
 21
775.1949943056411
 31
0.0
  0
LINE
  5
AEB
330
1F
100
AcDbEntity
  8
OBJECT
 48
0.5
100
AcDbLine
 10
2212.893481915105
 20
794.694994305641
 30
0.0
 11
2229.163481915105
 21
794.694994305641
 31
0.0
  0
LINE
  5
AEC
330
1F
100
AcDbEntity
  8
OBJECT
 48
0.5
100
AcDbLine
 10
2213.192813290277
 20
777.5549943056412
 30
0.0
 11
2228.842080429715
 21
777.5549943056416
 31
0.0
  0
LINE
  5
AED
330
1F
100
AcDbEntity
  8
OBJECT
 48
0.5
100
AcDbLine
 10
2228.302862024507
 20
788.830974169804
 30
0.0
 11
2213.754101805704
 21
787.5634643993471
 31
0.0
  0
LINE
  5
AEE
330
1F
100
AcDbEntity
  8
OBJECT
 48
0.5
100
AcDbLine
 10
2228.302862024507
 20
780.3809741698046
 30
0.0
 11
2213.754101805704
 21
779.1134643993473
 31
0.0
  0
LINE
  5
AEF
330
1F
100
AcDbEntity
  8
OBJECT
 48
0.5
100
AcDbLine
 10
2228.302862024507
 20
781.7809741698047
 30
0.0
 11
2213.754101805704
 21
780.5134643993478
 31
0.0
  0
LINE
  5
AF0
330
1F
100
AcDbEntity
  8
OBJECT
 48
0.5
100
AcDbLine
 10
2228.302862024507
 20
783.1909741698045
 30
0.0
 11
2213.754101805704
 21
781.9234643993477
 31
0.0
  0
LINE
  5
AF1
330
1F
100
AcDbEntity
  8
OBJECT
 48
0.5
100
AcDbLine
 10
2228.302862024507
 20
784.6009741698049
 30
0.0
 11
2213.754101805704
 21
783.3334643993467
 31
0.0
  0
LINE
  5
AF2
330
1F
100
AcDbEntity
  8
OBJECT
 48
0.5
100
AcDbLine
 10
2228.302862024507
 20
786.0109741698047
 30
0.0
 11
2213.754101805704
 21
784.7434643993465
 31
0.0
  0
LINE
  5
AF3
330
1F
100
AcDbEntity
  8
OBJECT
 48
0.5
100
AcDbLine
 10
2228.302862024507
 20
787.4209741698041
 30
0.0
 11
2213.754101805704
 21
786.1534643993468
 31
0.0
  0
LINE
  5
AF4
330
1F
100
AcDbEntity
  8
OBJECT
 48
0.5
100
AcDbLine
 10
2228.302862024507
 20
778.9709741698052
 30
0.0
 11
2213.754101805704
 21
777.7034643993474
 31
0.0
  0
LINE
  5
AF5
330
1F
100
AcDbEntity
  8
OBJECT
 48
0.5
100
AcDbLine
 10
2219.028481915105
 20
774.6949943056411
 30
0.0
 11
2219.028481915105
 21
775.1949943056411
 31
0.0
  0
LINE
  5
AF6
330
1F
100
AcDbEntity
  8
OBJECT
 48
0.5
100
AcDbLine
 10
2220.028481915105
 20
773.694994305641
 30
0.0
 11
2222.028481915105
 21
773.694994305641
 31
0.0
  0
ARC
  5
AF7
330
1F
100
AcDbEntity
  8
OBJECT
 48
0.5
100
AcDbCircle
 10
2220.028481915105
 20
774.6949943056411
 30
0.0
 40
1.0
100
AcDbArc
 50
180.0
 51
270.0
  0
LINE
  5
AF8
330
1F
100
AcDbEntity
  8
OBJECT
 48
0.5
100
AcDbLine
 10
2223.028481915105
 20
774.6949943056411
 30
0.0
 11
2223.028481915105
 21
775.1949943056411
 31
0.0
  0
ARC
  5
AF9
330
1F
100
AcDbEntity
  8
OBJECT
 48
0.5
100
AcDbCircle
 10
2222.028481915105
 20
774.6949943056411
 30
0.0
 40
1.0
100
AcDbArc
 50
270.0
 51
0.0
  0
LINE
  5
AFA
330
1F
100
AcDbEntity
  8
OBJECT
 48
0.5
100
AcDbLine
 10
2217.028481915105
 20
777.5549943056412
 30
0.0
 11
2219.028481915105
 21
775.1949943056411
 31
0.0
  0
ARC
  5
AFB
330
1F
100
AcDbEntity
  8
OBJECT
 48
0.5
100
AcDbCircle
 10
2213.793327523087
 20
788.2164689161655
 30
0.0
 40
0.9
100
AcDbArc
 50
127.6574706377468
 51
232.3425293622531
  0
ARC
  5
AFC
330
1F
100
AcDbEntity
  8
OBJECT
 48
0.5
100
AcDbCircle
 10
2212.683481915105
 20
786.7994028041234
 30
0.0
 40
0.9
100
AcDbArc
 50
308.4785951332881
 51
51.52140486671191
  0
ARC
  5
AFD
330
1F
100
AcDbEntity
  8
OBJECT
 48
0.5
100
AcDbCircle
 10
2213.793327523087
 20
785.3823366920814
 30
0.0
 40
0.9
100
AcDbArc
 50
127.6574706377468
 51
232.3425293622531
  0
ARC
  5
AFE
330
1F
100
AcDbEntity
  8
OBJECT
 48
0.5
100
AcDbCircle
 10
2212.683481915105
 20
783.9652705800395
 30
0.0
 40
0.9
100
AcDbArc
 50
308.4785951332881
 51
51.52140486671191
  0
ARC
  5
AFF
330
1F
100
AcDbEntity
  8
OBJECT
 48
0.5
100
AcDbCircle
 10
2213.793327523087
 20
782.5482044679975
 30
0.0
 40
0.9
100
AcDbArc
 50
127.6574706377468
 51
232.3425293622531
  0
ARC
  5
B00
330
1F
100
AcDbEntity
  8
OBJECT
 48
0.5
100
AcDbCircle
 10
2212.683481915105
 20
781.1311383559555
 30
0.0
 40
0.9
100
AcDbArc
 50
308.4785951332881
 51
51.52140486671191
  0
ARC
  5
B01
330
1F
100
AcDbEntity
  8
OBJECT
 48
0.5
100
AcDbCircle
 10
2213.793327523087
 20
779.7140722439134
 30
0.0
 40
0.9
100
AcDbArc
 50
127.6574706377468
 51
232.3425293622531
  0
ARC
  5
B02
330
1F
100
AcDbEntity
  8
OBJECT
 48
0.5
100
AcDbCircle
 10
2212.683481915105
 20
778.2970061318715
 30
0.0
 40
0.9
100
AcDbArc
 50
304.4664627656815
 51
51.52140486671191
  0
ARC
  5
B03
330
1F
100
AcDbEntity
  8
OBJECT
 48
0.5
100
AcDbCircle
 10
2212.683481915105
 20
789.6194028041231
 30
0.0
 40
0.9
100
AcDbArc
 50
308.4785951332881
 51
4.817980483717962
  0
LINE
  5
B04
330
1F
100
AcDbEntity
  8
OBJECT
 48
0.5
100
AcDbLine
 10
2212.893481915105
 20
789.694994305642
 30
0.0
 11
2212.893481915105
 21
794.694994305641
 31
0.0
  0
LINE
  5
B05
330
1F
100
AcDbEntity
  8
OBJECT
 48
0.5
100
AcDbLine
 10
2212.893481915105
 20
789.6949943056415
 30
0.0
 11
2222.035983209734
 21
789.694994305641
 31
0.0
  0
LINE
  5
B06
330
1F
100
AcDbEntity
  8
OBJECT
 48
0.5
100
AcDbLine
 10
2219.028481915105
 20
775.1949943056411
 30
0.0
 11
2223.028481915105
 21
775.1949943056411
 31
0.0
  0
LINE
  5
B07
330
1F
100
AcDbEntity
  8
OBJECT
 48
0.5
100
AcDbLine
 10
2222.035983209729
 20
789.6949943056406
 30
0.0
 11
2213.754101805704
 21
788.9734643993456
 31
0.0
  0
ARC
  5
B08
330
1F
100
AcDbEntity
  8
OBJECT
 48
0.5
100
AcDbCircle
 10
2228.263481915105
 20
789.5808879522296
 30
0.0
 40
0.9
100
AcDbArc
 50
308.4785951332881
 51
0.0
  0
ARC
  5
B09
330
1F
100
AcDbEntity
  8
OBJECT
 48
0.5
100
AcDbCircle
 10
2228.263481915105
 20
778.2443590558937
 30
0.0
 40
0.9
100
AcDbArc
 50
308.4785951332881
 51
51.52140486671191
  0
ARC
  5
B0A
330
1F
100
AcDbEntity
  8
OBJECT
 48
0.5
100
AcDbCircle
 10
2228.263481915105
 20
781.0784912799777
 30
0.0
 40
0.9
100
AcDbArc
 50
308.4785951332881
 51
51.52140486671191
  0
ARC
  5
B0B
330
1F
100
AcDbEntity
  8
OBJECT
 48
0.5
100
AcDbCircle
 10
2228.263481915105
 20
783.9126235040617
 30
0.0
 40
0.9
100
AcDbArc
 50
308.4785951332881
 51
51.52140486671191
  0
ARC
  5
B0C
330
1F
100
AcDbEntity
  8
OBJECT
 48
0.5
100
AcDbCircle
 10
2228.263481915105
 20
786.7467557281456
 30
0.0
 40
0.9
100
AcDbArc
 50
308.4785951332881
 51
51.52140486671191
  0
ARC
  5
B0D
330
1F
100
AcDbEntity
  8
OBJECT
 48
0.5
100
AcDbCircle
 10
2229.373327523087
 20
779.6614251679357
 30
0.0
 40
0.9
100
AcDbArc
 50
127.6574706377468
 51
232.3425293622531
  0
ARC
  5
B0E
330
1F
100
AcDbEntity
  8
OBJECT
 48
0.5
100
AcDbCircle
 10
2229.373327523087
 20
782.4955573920196
 30
0.0
 40
0.9
100
AcDbArc
 50
127.6574706377468
 51
232.3425293622531
  0
ARC
  5
B0F
330
1F
100
AcDbEntity
  8
OBJECT
 48
0.5
100
AcDbCircle
 10
2229.373327523087
 20
785.3296896161037
 30
0.0
 40
0.9
100
AcDbArc
 50
127.6574706377468
 51
232.3425293622531
  0
ARC
  5
B10
330
1F
100
AcDbEntity
  8
OBJECT
 48
0.5
100
AcDbCircle
 10
2229.373327523087
 20
788.1638218401876
 30
0.0
 40
0.9
100
AcDbArc
 50
127.6574706377468
 51
232.3425293622531
  0
LINE
  5
B11
330
1F
100
AcDbEntity
  8
OBJECT
 48
0.5
100
AcDbLine
 10
2229.163481915105
 20
789.5808879522296
 30
0.0
 11
2229.163481915105
 21
794.694994305641
 31
0.0
  0
ARC
  5
C1C
330
1F
100
AcDbEntity
  8
OBJECT
 48
0.5
100
AcDbCircle
 10
2148.527264147685
 20
821.7730458221076
 30
0.0
 40
90.0
100
AcDbArc
 50
1.5786806035467
 51
21.6929322077437
  0
ARC
  5
C21
330
1F
100
AcDbEntity
  8
OBJECT
 48
0.5
100
AcDbCircle
 10
2124.299983645783
 20
853.0357753316103
 30
0.0
 40
120.0
100
AcDbArc
 50
330.9106357166156
 51
338.0643163665836
  0
ARC
  5
C3C
330
1F
100
AcDbEntity
  8
OBJECT
 48
0.5
100
AcDbCircle
 10
2198.508285912939
 20
823.1505302326226
 30
0.0
 40
40.0
100
AcDbArc
 50
338.0643163665834
 51
1.57868060354656
  0
ARC
  5
C49
330
1F
100
AcDbEntity
  8
OBJECT
 48
0.5
100
AcDbCircle
 10
2243.548677917271
 20
823.1505302326226
 30
0.0
 40
40.0
100
AcDbArc
 50
178.4213193964538
 51
201.9356836334169
  0
ARC
  5
C4A
330
1F
100
AcDbEntity
  8
OBJECT
 48
0.5
100
AcDbCircle
 10
2317.756980184426
 20
853.0357753316106
 30
0.0
 40
120.0
100
AcDbArc
 50
201.9356836334167
 51
209.0893642833847
  0
ARC
  5
C4C
330
1F
100
AcDbEntity
  8
OBJECT
 48
0.5
100
AcDbCircle
 10
2293.529699682525
 20
821.773045822108
 30
0.0
 40
90.0
100
AcDbArc
 50
158.3070677922565
 51
178.4213193964536
  0
ARC
  5
C77
330
1F
100
AcDbEntity
  8
OBJECT
 48
0.5
100
AcDbCircle
 10
2197.556162765582
 20
841.9236090357166
 30
0.0
 40
37.0
100
AcDbArc
 50
20.76251460045965
 51
42.81853968864346
  0
ARC
  5
C79
330
1F
100
AcDbEntity
  8
OBJECT
 48
0.5
100
AcDbCircle
 10
2244.500801064627
 20
841.9236090357166
 30
0.0
 40
37.0
100
AcDbArc
 50
137.1814603113564
 51
159.2374853995403
  0
ARC
  5
C7C
330
1F
100
AcDbEntity
  8
OBJECT
 48
0.5
100
AcDbCircle
 10
2221.028481915105
 20
863.6733270509676
 30
0.0
 40
5.0
100
AcDbArc
 50
42.81853968864306
 51
137.1814603113569
  0
CIRCLE
  5
CA8
330
1F
100
AcDbEntity
  8
OBJECT
 48
0.5
100
AcDbCircle
 10
2221.028482754595
 20
925.2693052740704
 30
0.0
 40
17.47135613409636
  0
ARC
  5
CF8
330
1F
100
AcDbEntity
  8
LED素子
 48
0.5
100
AcDbCircle
 10
2216.028474191977
 20
930.2693052740705
 30
0.0
 40
0.5
100
AcDbArc
 50
45.00000000000917
 51
225.0000000000091
  0
CIRCLE
  5
CF9
330
1F
100
AcDbEntity
  8
LED素子
 48
0.5
100
AcDbCircle
 10
2218.028474191977
 20
928.2693052740704
 30
0.0
 40
0.5
  0
LINE
  5
CFA
330
1F
100
AcDbEntity
  8
LED素子
 48
0.5
100
AcDbLine
 10
2217.674920801384
 20
927.9157518834772
 30
0.0
 11
2215.674920801384
 21
929.9157518834771
 31
0.0
  0
LINE
  5
CFB
330
1F
100
AcDbEntity
  8
LED素子
 48
0.5
100
AcDbLine
 10
2218.38202758257
 20
928.6228586646638
 30
0.0
 11
2216.382027582571
 21
930.6228586646637
 31
0.0
  0
CIRCLE
  5
CFC
330
1F
100
AcDbEntity
  8
LED素子
 48
0.5
100
AcDbCircle
 10
2218.028474191977
 20
922.2693052740705
 30
0.0
 40
0.5
  0
LINE
  5
CFD
330
1F
100
AcDbEntity
  8
LED素子
 48
0.5
100
AcDbLine
 10
2218.38202758257
 20
921.9157518834771
 30
0.0
 11
2216.38202758257
 21
919.9157518834772
 31
0.0
  0
ARC
  5
CFE
330
1F
100
AcDbEntity
  8
LED素子
 48
0.5
100
AcDbCircle
 10
2216.028474191977
 20
920.2693052740704
 30
0.0
 40
0.5
100
AcDbArc
 50
134.9999999999907
 51
314.9999999999907
  0
LINE
  5
CFF
330
1F
100
AcDbEntity
  8
LED素子
 48
0.5
100
AcDbLine
 10
2217.674920801384
 20
922.6228586646637
 30
0.0
 11
2215.674920801384
 21
920.6228586646638
 31
0.0
  0
ARC
  5
D01
330
1F
100
AcDbEntity
  8
LED素子
 48
0.5
100
AcDbCircle
 10
2226.028474191977
 20
930.2693052740705
 30
0.0
 40
0.5
100
AcDbArc
 50
314.9999999999907
 51
134.9999999999907
  0
LINE
  5
D02
330
1F
100
AcDbEntity
  8
LED素子
 48
0.5
100
AcDbLine
 10
2224.38202758257
 20
927.9157518834772
 30
0.0
 11
2226.382027582571
 21
929.9157518834771
 31
0.0
  0
CIRCLE
  5
D03
330
1F
100
AcDbEntity
  8
LED素子
 48
0.5
100
AcDbCircle
 10
2224.028474191977
 20
928.2693052740704
 30
0.0
 40
0.5
  0
LINE
  5
D04
330
1F
100
AcDbEntity
  8
LED素子
 48
0.5
100
AcDbLine
 10
2223.674920801384
 20
928.6228586646638
 30
0.0
 11
2225.674920801384
 21
930.6228586646637
 31
0.0
  0
LINE
  5
D05
330
1F
100
AcDbEntity
  8
LED素子
 48
0.5
100
AcDbLine
 10
2224.38202758257
 20
922.6228586646637
 30
0.0
 11
2226.38202758257
 21
920.6228586646638
 31
0.0
  0
CIRCLE
  5
D06
330
1F
100
AcDbEntity
  8
LED素子
 48
0.5
100
AcDbCircle
 10
2224.028474191977
 20
922.2693052740705
 30
0.0
 40
0.5
  0
LINE
  5
D07
330
1F
100
AcDbEntity
  8
LED素子
 48
0.5
100
AcDbLine
 10
2223.674920801384
 20
921.9157518834771
 30
0.0
 11
2225.674920801384
 21
919.9157518834772
 31
0.0
  0
ARC
  5
D08
330
1F
100
AcDbEntity
  8
LED素子
 48
0.5
100
AcDbCircle
 10
2226.028474191977
 20
920.2693052740704
 30
0.0
 40
0.5
100
AcDbArc
 50
225.0000000000091
 51
45.0000000000092
  0
LINE
  5
D0D
330
1F
100
AcDbEntity
  8
LED素子
 48
0.5
100
AcDbLine
 10
2217.536406113614
 20
851.7256408435601
 30
0.0
 11
2215.512397982379
 21
817.7859385601774
 31
0.0
  0
LINE
  5
D0E
330
1F
100
AcDbEntity
  8
LED素子
 48
0.5
100
AcDbLine
 10
2218.534632651361
 20
851.6661111926413
 30
0.0
 11
2216.510624520125
 21
817.7264089092586
 31
0.0
  0
LINE
  5
D10
330
1F
100
AcDbEntity
  8
LED素子
 48
0.5
100
AcDbLine
 10
2224.523551274339
 20
851.7235233065257
 30
0.0
 11
2226.523551274338
 21
817.7823978095716
 31
0.0
  0
LINE
  5
D11
330
1F
100
AcDbEntity
  8
LED素子
 48
0.5
100
AcDbLine
 10
2223.525282877369
 20
851.664699777114
 30
0.0
 11
2225.525282877369
 21
817.7235742801599
 31
0.0
  0
LINE
  5
D15
330
1F
100
AcDbEntity
  8
LED素子
 48
0.5
100
AcDbLine
 10
2218.534632651361
 20
851.6661111926413
 30
0.0
 11
2217.536406113614
 21
851.7256408435601
 31
0.0
  0
LINE
  5
D16
330
1F
100
AcDbEntity
  8
LED素子
 48
0.5
100
AcDbLine
 10
2223.525282877369
 20
851.664699777114
 30
0.0
 11
2224.523551274339
 21
851.7235233065257
 31
0.0
  0
LINE
  5
D17
330
1F
100
AcDbEntity
  8
LED素子
 48
0.5
100
AcDbLine
 10
2216.510624520125
 20
817.7264089092586
 30
0.0
 11
2215.512397982379
 21
817.7859385601774
 31
0.0
  0
LINE
  5
D18
330
1F
100
AcDbEntity
  8
LED素子
 48
0.5
100
AcDbLine
 10
2225.525282877369
 20
817.7235742801599
 30
0.0
 11
2226.523551274338
 21
817.7823978095716
 31
0.0
  0
TEXT
  5
1300
330
1F
100
AcDbEntity
  8
DIM
 48
0.5
100
AcDbText
 10
2201.536096128303
 20
725.1625145810176
 30
0.0
 40
10.0
  1
LDF28A
  7
STYLE1
 72
     1
 11
2221.028481915105
 21
730.1625145810175
 31
0.0
100
AcDbText
 73
     2
  0
VIEWPORT
  5
12EB
330
1B
100
AcDbEntity
 67
     1
  8
0
 48
0.5
100
AcDbViewport
 10
5.0
 20
5.0
 30
0.0
 40
15.98757858639741
 41
10.08275862068965
 68
     1
 69
     1
1001
ACAD
1000
MVIEW
1002
{
1070
    16
1010
0.0
1020
0.0
1030
0.0
1010
0.0
1020
0.0
1030
1.0
1040
0.0
1040
10.08275862068965
1040
5.0
1040
5.0
1040
50.0
1040
0.0
1040
0.0
1070
     0
1070
   100
1070
     1
1070
     1
1070
     0
1070
     0
1070
     0
1070
     0
1040
0.0
1040
0.0
1040
0.0
1040
10.0
1040
10.0
1040
10.0
1040
10.0
1070
     0
1002
{
1002
}
1002
}
  0
VIEWPORT
  5
12ED
330
1B
100
AcDbEntity
 67
     1
  8
LED素子
 48
0.5
100
AcDbViewport
 10
0.0
 20
0.0
 30
0.0
 40
0.0
 41
0.0
 68
    -1
 69
     2
1001
ACAD
1000
MVIEW
1002
{
1070
    16
1010
0.0
1020
0.0
1030
0.0
1010
0.0
1020
0.0
1030
1.0
1040
0.0
1040
837.0517486265107
1040
2264.945724865272
1040
947.9925982393794
1040
50.0
1040
0.0
1040
0.0
1070
     0
1070
   100
1070
     1
1070
     3
1070
     0
1070
     0
1070
     0
1070
     0
1040
0.0
1040
0.0
1040
0.0
1040
10.0
1040
10.0
1040
10.0
1040
10.0
1070
     0
1002
{
1002
}
1002
}
  0
ENDSEC
  0
SECTION
  2
OBJECTS
  0
DICTIONARY
  5
C
330
0
100
AcDbDictionary
  3
ACAD_GROUP
350
D
  3
ACAD_LAYOUT
350
1A
  3
ACAD_MLINESTYLE
350
17
  3
ACAD_PLOTSETTINGS
350
19
  3
ACAD_PLOTSTYLENAME
350
E
  3
ACADDIM
350
EDE
  3
DWGPROPS
350
12F6
  3
ACDBHEADERROUNDTRIPXREC
350
131F
  0
DICTIONARY
  5
1341
330
1F
100
AcDbDictionary
280
     1
  3
ACAD_LAYOUTSELFREF
360
1342
  0
DICTIONARY
  5
133F
330
1B
100
AcDbDictionary
280
     1
  3
ACAD_LAYOUTSELFREF
360
1340
  0
DICTIONARY
  5
D
102
{ACAD_REACTORS
330
C
102
}
330
C
100
AcDbDictionary
  3
*A1
350
40C
  0
DICTIONARY
  5
1A
102
{ACAD_REACTORS
330
C
102
}
330
C
100
AcDbDictionary
  0
DICTIONARY
  5
17
102
{ACAD_REACTORS
330
C
102
}
330
C
100
AcDbDictionary
  3
STANDARD
350
18
  0
DICTIONARY
  5
19
102
{ACAD_REACTORS
330
C
102
}
330
C
100
AcDbDictionary
  0
ACDBDICTIONARYWDFLT
  5
E
102
{ACAD_REACTORS
330
C
102
}
330
C
100
AcDbDictionary
281
     1
  3
Normal
350
F
100
AcDbDictionaryWithDefault
340
F
  0
XRECORD
  5
EDE
102
{ACAD_REACTORS
330
C
102
}
330
C
100
AcDbXrecord
 90
   990106
  3

 60
     0
 61
     0
 62
     4
 63
     4
 64
     1
 65
     0
 66
     0
 67
     3
 68
     1
 69
     0
 70
     0
 71
     0
 72
     0
 40
0.0
170
     2
  0
XRECORD
  5
12F6
102
{ACAD_REACTORS
330
C
102
}
330
C
100
AcDbXrecord
  1
DWGPROPS COOKIE
  2

  3

  4

  6

  7

  8

  9

300
=
301
=
302
=
303
=
304
=
305
=
306
=
307
=
308
=
309
=
 40
0.5503817245370371
 41
2452262.702194444
 42
2457767.400291296
  1

 90
        0
  0
DICTIONARY
  5
131F
102
{ACAD_REACTORS
330
C
102
}
330
C
100
AcDbDictionary
  3
TSTACKALIGN
350
1320
  3
TSTACKSIZE
350
1321
  3
HYPERLINKBASE
350
1322
  3
STYLESHEET
350
1323
  3
LAYOUTDICT
350
1324
  3
PLOTSETDICT
350
1325
  3
PLOTSTYLNAMDICT
350
1326
  3
LWETCUNION
350
1327
  3
INSUNITS
350
1328
  3
CEPSNTYPE
350
1329
  3
FINGERPRINTGUID
350
132A
  3
VERSIONGUID
350
132B
  3
PSVPSCALE
350
132C
  3
PUCSORTHOREF
350
132D
  3
PUCSORTHOVIEW
350
132E
  3
PUCSBASE
350
132F
  3
PUCSORGTOP
350
1330
  3
PUCSORGBOTTOM
350
1331
  3
PUCSORGLEFT
350
1332
  3
PUCSORGRIGHT
350
1333
  3
PUCSORGFRONT
350
1334
  3
PUCSORGBACK
350
1335
  3
UCSORTHOREF
350
1336
  3
UCSORTHOVIEW
350
1337
  3
UCSBASE
350
1338
  3
UCSORGTOP
350
1339
  3
UCSORGBOTTOM
350
133A
  3
UCSORGLEFT
350
133B
  3
UCSORGRIGHT
350
133C
  3
UCSORGFRONT
350
133D
  3
UCSORGBACK
350
133E
  0
XRECORD
  5
1342
102
{ACAD_REACTORS
330
1341
102
}
330
1341
100
AcDbXrecord
340
1F
  0
XRECORD
  5
1340
102
{ACAD_REACTORS
330
133F
102
}
330
133F
100
AcDbXrecord
340
1B
  0
GROUP
  5
40C
102
{ACAD_REACTORS
330
D
102
}
330
D
100
AcDbGroup
300

 70
     1
 71
     1
  0
MLINESTYLE
  5
18
102
{ACAD_REACTORS
330
17
102
}
330
17
100
AcDbMlineStyle
  2
STANDARD
 70
     0
  3

 62
   256
 51
90.0
 52
90.0
 71
     2
 49
0.5
 62
   256
  6
BYLAYER
 49
-0.5
 62
   256
  6
BYLAYER
  0
ACDBPLACEHOLDER
  5
F
102
{ACAD_REACTORS
330
E
102
}
330
E
100
AcDbPlaceHolder
280
     0
  0
XRECORD
  5
1320
102
{ACAD_REACTORS
330
131F
102
}
330
131F
100
AcDbXrecord
 90
        1
  0
XRECORD
  5
1321
102
{ACAD_REACTORS
330
131F
102
}
330
131F
100
AcDbXrecord
 90
       70
  0
XRECORD
  5
1322
102
{ACAD_REACTORS
330
131F
102
}
330
131F
100
AcDbXrecord
  1

  0
XRECORD
  5
1323
102
{ACAD_REACTORS
330
131F
102
}
330
131F
100
AcDbXrecord
  1
monochrome.ctb
  0
XRECORD
  5
1324
102
{ACAD_REACTORS
330
131F
102
}
330
131F
100
AcDbXrecord
340
1A
  0
XRECORD
  5
1325
102
{ACAD_REACTORS
330
131F
102
}
330
131F
100
AcDbXrecord
340
19
  0
XRECORD
  5
1326
102
{ACAD_REACTORS
330
131F
102
}
330
131F
100
AcDbXrecord
340
E
  0
XRECORD
  5
1327
102
{ACAD_REACTORS
330
131F
102
}
330
131F
100
AcDbXrecord
 90
    10781
  0
XRECORD
  5
1328
102
{ACAD_REACTORS
330
131F
102
}
330
131F
100
AcDbXrecord
 90
        4
  0
XRECORD
  5
1329
102
{ACAD_REACTORS
330
131F
102
}
330
131F
100
AcDbXrecord
 90
        0
  0
XRECORD
  5
132A
102
{ACAD_REACTORS
330
131F
102
}
330
131F
100
AcDbXrecord
  1
{7590CCFC-F398-11D5-ACE4-0000F495DB00}
  0
XRECORD
  5
132B
102
{ACAD_REACTORS
330
131F
102
}
330
131F
100
AcDbXrecord
  1
{85A593F6-249F-4172-AB38-88428F9D8852}
  0
XRECORD
  5
132C
102
{ACAD_REACTORS
330
131F
102
}
330
131F
100
AcDbXrecord
 40
0.0
  0
XRECORD
  5
132D
102
{ACAD_REACTORS
330
131F
102
}
330
131F
100
AcDbXrecord
340
0
  0
XRECORD
  5
132E
102
{ACAD_REACTORS
330
131F
102
}
330
131F
100
AcDbXrecord
 70
     0
  0
XRECORD
  5
132F
102
{ACAD_REACTORS
330
131F
102
}
330
131F
100
AcDbXrecord
340
0
  0
XRECORD
  5
1330
102
{ACAD_REACTORS
330
131F
102
}
330
131F
100
AcDbXrecord
 10
0.0
 20
0.0
 30
0.0
  0
XRECORD
  5
1331
102
{ACAD_REACTORS
330
131F
102
}
330
131F
100
AcDbXrecord
 10
0.0
 20
0.0
 30
0.0
  0
XRECORD
  5
1332
102
{ACAD_REACTORS
330
131F
102
}
330
131F
100
AcDbXrecord
 10
0.0
 20
0.0
 30
0.0
  0
XRECORD
  5
1333
102
{ACAD_REACTORS
330
131F
102
}
330
131F
100
AcDbXrecord
 10
0.0
 20
0.0
 30
0.0
  0
XRECORD
  5
1334
102
{ACAD_REACTORS
330
131F
102
}
330
131F
100
AcDbXrecord
 10
0.0
 20
0.0
 30
0.0
  0
XRECORD
  5
1335
102
{ACAD_REACTORS
330
131F
102
}
330
131F
100
AcDbXrecord
 10
0.0
 20
0.0
 30
0.0
  0
XRECORD
  5
1336
102
{ACAD_REACTORS
330
131F
102
}
330
131F
100
AcDbXrecord
340
0
  0
XRECORD
  5
1337
102
{ACAD_REACTORS
330
131F
102
}
330
131F
100
AcDbXrecord
 70
     0
  0
XRECORD
  5
1338
102
{ACAD_REACTORS
330
131F
102
}
330
131F
100
AcDbXrecord
340
0
  0
XRECORD
  5
1339
102
{ACAD_REACTORS
330
131F
102
}
330
131F
100
AcDbXrecord
 10
0.0
 20
0.0
 30
0.0
  0
XRECORD
  5
133A
102
{ACAD_REACTORS
330
131F
102
}
330
131F
100
AcDbXrecord
 10
0.0
 20
0.0
 30
0.0
  0
XRECORD
  5
133B
102
{ACAD_REACTORS
330
131F
102
}
330
131F
100
AcDbXrecord
 10
0.0
 20
0.0
 30
0.0
  0
XRECORD
  5
133C
102
{ACAD_REACTORS
330
131F
102
}
330
131F
100
AcDbXrecord
 10
0.0
 20
0.0
 30
0.0
  0
XRECORD
  5
133D
102
{ACAD_REACTORS
330
131F
102
}
330
131F
100
AcDbXrecord
 10
0.0
 20
0.0
 30
0.0
  0
XRECORD
  5
133E
102
{ACAD_REACTORS
330
131F
102
}
330
131F
100
AcDbXrecord
 10
0.0
 20
0.0
 30
0.0
  0
ENDSEC
  0
EOF
